ISO-10303-21;
HEADER;
FILE_DESCRIPTION(('STEP AP203'),'1');
FILE_NAME('550-016X12-28X3.stp','2015-12-17T14:56:04',(' '),(' '),'Spatial InterOp 3D',' ',' ');
FILE_SCHEMA(('CONFIG_CONTROL_DESIGN'));
ENDSEC;
DATA;
#1=DESIGN_CONTEXT('',#51,'design');
#2=APPLICATION_PROTOCOL_DEFINITION('INTERNATIONAL STANDARD','config_control_design',1994,#51);
#3=PRODUCT_CATEGORY_RELATIONSHIP('NONE','NONE',#52,#53);
#4=DATE_AND_TIME(#54,#55);
#5=DATE_TIME_ROLE('creation_date');
#6=DATE_TIME_ROLE('classification_date');
#7=PERSON_AND_ORGANIZATION_ROLE('creator');
#8=PERSON_AND_ORGANIZATION_ROLE('design_supplier');
#9=PERSON_AND_ORGANIZATION_ROLE('classification_officer');
#10=PERSON_AND_ORGANIZATION_ROLE('design_owner');
#11=APPROVAL_PERSON_ORGANIZATION(#56,#57,#58);
#12=APPROVAL_DATE_TIME(#4,#57);
#13=CC_DESIGN_APPROVAL(#57,(#59,#60,#61));
#14=CC_DESIGN_DATE_AND_TIME_ASSIGNMENT(#4,#5,(#61));
#15=CC_DESIGN_DATE_AND_TIME_ASSIGNMENT(#4,#6,(#59));
#16=CC_DESIGN_PERSON_AND_ORGANIZATION_ASSIGNMENT(#56,#10,(#62));
#17=CC_DESIGN_PERSON_AND_ORGANIZATION_ASSIGNMENT(#56,#7,(#61));
#18=CC_DESIGN_PERSON_AND_ORGANIZATION_ASSIGNMENT(#56,#7,(#60));
#19=CC_DESIGN_PERSON_AND_ORGANIZATION_ASSIGNMENT(#56,#8,(#60));
#20=CC_DESIGN_SECURITY_CLASSIFICATION(#59,(#60));
#21=CC_DESIGN_PERSON_AND_ORGANIZATION_ASSIGNMENT(#56,#9,(#59));
#22=SHAPE_DEFINITION_REPRESENTATION(#63,#64);
#23=DESIGN_CONTEXT('',#65,'design');
#24=APPLICATION_PROTOCOL_DEFINITION('INTERNATIONAL STANDARD','config_control_design',1994,#65);
#25=PRODUCT_CATEGORY_RELATIONSHIP('NONE','NONE',#66,#67);
#26=DATE_AND_TIME(#68,#69);
#27=DATE_TIME_ROLE('creation_date');
#28=DATE_TIME_ROLE('classification_date');
#29=PERSON_AND_ORGANIZATION_ROLE('creator');
#30=PERSON_AND_ORGANIZATION_ROLE('design_supplier');
#31=PERSON_AND_ORGANIZATION_ROLE('classification_officer');
#32=PERSON_AND_ORGANIZATION_ROLE('design_owner');
#33=APPROVAL_PERSON_ORGANIZATION(#70,#71,#72);
#34=APPROVAL_DATE_TIME(#26,#71);
#35=CC_DESIGN_APPROVAL(#71,(#73,#74,#75));
#36=CC_DESIGN_DATE_AND_TIME_ASSIGNMENT(#26,#27,(#75));
#37=CC_DESIGN_DATE_AND_TIME_ASSIGNMENT(#26,#28,(#73));
#38=CC_DESIGN_PERSON_AND_ORGANIZATION_ASSIGNMENT(#70,#32,(#76));
#39=CC_DESIGN_PERSON_AND_ORGANIZATION_ASSIGNMENT(#70,#29,(#75));
#40=CC_DESIGN_PERSON_AND_ORGANIZATION_ASSIGNMENT(#70,#29,(#74));
#41=CC_DESIGN_PERSON_AND_ORGANIZATION_ASSIGNMENT(#70,#30,(#74));
#42=CC_DESIGN_SECURITY_CLASSIFICATION(#73,(#74));
#43=CC_DESIGN_PERSON_AND_ORGANIZATION_ASSIGNMENT(#70,#31,(#73));
#44=CONTEXT_DEPENDENT_SHAPE_REPRESENTATION(#77,#78);
#45=SHAPE_DEFINITION_REPRESENTATION(#79,#80);
#46=SHAPE_REPRESENTATION_RELATIONSHIP('NONE','NONE',#80,#81);
#47= (GEOMETRIC_REPRESENTATION_CONTEXT(3)GLOBAL_UNCERTAINTY_ASSIGNED_CONTEXT((#84))GLOBAL_UNIT_ASSIGNED_CONTEXT((#86,#87,#88))REPRESENTATION_CONTEXT('NONE','WORKSPACE'));
#51=APPLICATION_CONTEXT('CONFIGURATION CONTROLLED 3D DESIGNS OF MECHANICAL PARTS AND ASSEMBLIES');
#52=PRODUCT_CATEGORY('part','NONE');
#53=PRODUCT_RELATED_PRODUCT_CATEGORY('detail',' ',(#62));
#54=CALENDAR_DATE(2015,17,11);
#55=LOCAL_TIME(15,56,4.0,#90);
#56=PERSON_AND_ORGANIZATION(#91,#92);
#57=APPROVAL(#93,'SOLID MODEL');
#58=APPROVAL_ROLE('APPROVED');
#59=SECURITY_CLASSIFICATION('','',#94);
#60=PRODUCT_DEFINITION_FORMATION_WITH_SPECIFIED_SOURCE(' ','NONE',#62,.NOT_KNOWN.);
#61=PRODUCT_DEFINITION('NONE','NONE',#60,#1);
#62=PRODUCT('','','PART--DESC',(#95));
#63=PRODUCT_DEFINITION_SHAPE('NONE','NONE',#61);
#64=SHAPE_REPRESENTATION('',(#96,#97),#98);
#65=APPLICATION_CONTEXT('CONFIGURATION CONTROLLED 3D DESIGNS OF MECHANICAL PARTS AND ASSEMBLIES');
#66=PRODUCT_CATEGORY('part','NONE');
#67=PRODUCT_RELATED_PRODUCT_CATEGORY('detail',' ',(#76));
#68=CALENDAR_DATE(2015,17,11);
#69=LOCAL_TIME(15,56,4.0,#99);
#70=PERSON_AND_ORGANIZATION(#100,#101);
#71=APPROVAL(#102,'SOLID MODEL');
#72=APPROVAL_ROLE('APPROVED');
#73=SECURITY_CLASSIFICATION('','',#103);
#74=PRODUCT_DEFINITION_FORMATION_WITH_SPECIFIED_SOURCE(' ','NONE',#76,.NOT_KNOWN.);
#75=PRODUCT_DEFINITION('550-16X12-28X3','550-16X12-28X3',#74,#23);
#76=PRODUCT('550-16X12-28X3','550-16X12-28X3','PART-550-16X12-28X3-DESC',(#104));
#77=(REPRESENTATION_RELATIONSHIP('','',#80,#64)REPRESENTATION_RELATIONSHIP_WITH_TRANSFORMATION(#107)SHAPE_REPRESENTATION_RELATIONSHIP());
#78=PRODUCT_DEFINITION_SHAPE('NAUO-PROD-DEF','NAUO-PROD-DEF',#109);
#79=PRODUCT_DEFINITION_SHAPE('NONE','NONE',#75);
#80=SHAPE_REPRESENTATION('550-16X12-28X3',(#96),#98);
#81=ADVANCED_BREP_SHAPE_REPRESENTATION('',(#110),#47);
#84=UNCERTAINTY_MEASURE_WITH_UNIT(LENGTH_MEASURE(1.0E-006),#86,'','');
#86= (CONVERSION_BASED_UNIT('METRE',#113)LENGTH_UNIT()NAMED_UNIT(#116));
#87= (NAMED_UNIT(#118)PLANE_ANGLE_UNIT()SI_UNIT($,.RADIAN.));
#88= (NAMED_UNIT(#118)SOLID_ANGLE_UNIT()SI_UNIT($,.STERADIAN.));
#90=COORDINATED_UNIVERSAL_TIME_OFFSET(1,0,.AHEAD.);
#91=PERSON('','UNSPECIFIED',$,$,$,$);
#92=ORGANIZATION('UNSPECIFIED','UNSPECIFIED','UNSPECIFIED');
#93=APPROVAL_STATUS('approved');
#94=SECURITY_CLASSIFICATION_LEVEL('unclassified');
#95=MECHANICAL_CONTEXT('',#51,'mechanical');
#96=AXIS2_PLACEMENT_3D('',#124,#125,#126);
#97=AXIS2_PLACEMENT_3D('',#127,#128,#129);
#98= (GEOMETRIC_REPRESENTATION_CONTEXT(3)GLOBAL_UNCERTAINTY_ASSIGNED_CONTEXT((#132))GLOBAL_UNIT_ASSIGNED_CONTEXT((#134,#135,#136))REPRESENTATION_CONTEXT('NONE','WORKSPACE'));
#99=COORDINATED_UNIVERSAL_TIME_OFFSET(1,0,.AHEAD.);
#100=PERSON('','UNSPECIFIED',$,$,$,$);
#101=ORGANIZATION('UNSPECIFIED','UNSPECIFIED','UNSPECIFIED');
#102=APPROVAL_STATUS('approved');
#103=SECURITY_CLASSIFICATION_LEVEL('unclassified');
#104=MECHANICAL_CONTEXT('',#65,'mechanical');
#107=ITEM_DEFINED_TRANSFORMATION('','',#96,#97);
#109=NEXT_ASSEMBLY_USAGE_OCCURRENCE('550-16X12-28X3','550-16X12-28X3','550-16X12-28X3',#61,#75,$);
#110=MANIFOLD_SOLID_BREP('',#138);
#113=LENGTH_MEASURE_WITH_UNIT(LENGTH_MEASURE(1.0),#139);
#116=DIMENSIONAL_EXPONENTS(1.0,0.0,0.0,0.0,0.0,0.0,0.0);
#118=DIMENSIONAL_EXPONENTS(0.0,0.0,0.0,0.0,0.0,0.0,0.0);
#124=CARTESIAN_POINT('',(0.0,0.0,0.0));
#125=DIRECTION('',(0.0,0.0,1.0));
#126=DIRECTION('',(1.0,0.0,0.0));
#127=CARTESIAN_POINT('',(0.0,0.0,0.0));
#128=DIRECTION('',(0.0,0.0,1.0));
#129=DIRECTION('',(0.0,1.0,0.0));
#132=UNCERTAINTY_MEASURE_WITH_UNIT(LENGTH_MEASURE(1.0E-006),#134,'','');
#134= (CONVERSION_BASED_UNIT('METRE',#142)LENGTH_UNIT()NAMED_UNIT(#145));
#135= (NAMED_UNIT(#147)PLANE_ANGLE_UNIT()SI_UNIT($,.RADIAN.));
#136= (NAMED_UNIT(#147)SOLID_ANGLE_UNIT()SI_UNIT($,.STERADIAN.));
#138=CLOSED_SHELL('',(#153,#154,#155,#156,#157,#158,#159,#160,#161,#162,#163,#164));
#139= (NAMED_UNIT(#116)LENGTH_UNIT()SI_UNIT($,.METRE.));
#142=LENGTH_MEASURE_WITH_UNIT(LENGTH_MEASURE(1.0),#166);
#145=DIMENSIONAL_EXPONENTS(1.0,0.0,0.0,0.0,0.0,0.0,0.0);
#147=DIMENSIONAL_EXPONENTS(0.0,0.0,0.0,0.0,0.0,0.0,0.0);
#153=ADVANCED_FACE('',(#167,#168),#169,.F.);
#154=ADVANCED_FACE('',(#170,#171),#172,.F.);
#155=ADVANCED_FACE('',(#173,#174),#175,.T.);
#156=ADVANCED_FACE('',(#176,#177),#178,.F.);
#157=ADVANCED_FACE('',(#179,#180),#181,.T.);
#158=ADVANCED_FACE('',(#182,#183),#184,.T.);
#159=ADVANCED_FACE('',(#185,#186),#187,.T.);
#160=ADVANCED_FACE('',(#188,#189),#190,.F.);
#161=ADVANCED_FACE('',(#191,#192),#193,.T.);
#162=ADVANCED_FACE('',(#194,#195),#196,.T.);
#163=ADVANCED_FACE('',(#197,#198),#199,.T.);
#164=ADVANCED_FACE('',(#200,#201),#202,.T.);
#166= (NAMED_UNIT(#145)LENGTH_UNIT()SI_UNIT($,.METRE.));
#167=FACE_BOUND('',#204,.T.);
#168=FACE_OUTER_BOUND('',#205,.T.);
#169=CONICAL_SURFACE('',#206,0.0086,0.785398163397438);
#170=FACE_OUTER_BOUND('',#207,.T.);
#171=FACE_OUTER_BOUND('',#208,.T.);
#172=CYLINDRICAL_SURFACE('',#209,0.008);
#173=FACE_BOUND('',#210,.T.);
#174=FACE_OUTER_BOUND('',#211,.T.);
#175=PLANE('',#212);
#176=FACE_OUTER_BOUND('',#213,.T.);
#177=FACE_BOUND('',#214,.T.);
#178=CONICAL_SURFACE('',#215,0.008,0.78539816339744);
#179=FACE_OUTER_BOUND('',#216,.T.);
#180=FACE_BOUND('',#217,.T.);
#181=PLANE('',#218);
#182=FACE_OUTER_BOUND('',#219,.T.);
#183=FACE_BOUND('',#220,.T.);
#184=CONICAL_SURFACE('',#221,0.0104,0.785398163397451);
#185=FACE_OUTER_BOUND('',#222,.T.);
#186=FACE_OUTER_BOUND('',#223,.T.);
#187=CYLINDRICAL_SURFACE('',#224,0.011);
#188=FACE_OUTER_BOUND('',#225,.T.);
#189=FACE_OUTER_BOUND('',#226,.T.);
#190=TOROIDAL_SURFACE('',#227,0.0116,0.0006);
#191=FACE_OUTER_BOUND('',#228,.T.);
#192=FACE_BOUND('',#229,.T.);
#193=PLANE('',#230);
#194=FACE_OUTER_BOUND('',#231,.T.);
#195=FACE_BOUND('',#232,.T.);
#196=CONICAL_SURFACE('',#233,0.0134,0.785398163397451);
#197=FACE_OUTER_BOUND('',#234,.T.);
#198=FACE_OUTER_BOUND('',#235,.T.);
#199=CYLINDRICAL_SURFACE('',#236,0.014);
#200=FACE_BOUND('',#237,.T.);
#201=FACE_OUTER_BOUND('',#238,.T.);
#202=CONICAL_SURFACE('',#239,0.014,0.78539816339745);
#204=EDGE_LOOP('',(#240));
#205=EDGE_LOOP('',(#241));
#206=AXIS2_PLACEMENT_3D('',#242,#243,#244);
#207=EDGE_LOOP('',(#245));
#208=EDGE_LOOP('',(#246));
#209=AXIS2_PLACEMENT_3D('',#247,#248,#249);
#210=EDGE_LOOP('',(#250));
#211=EDGE_LOOP('',(#251));
#212=AXIS2_PLACEMENT_3D('',#252,#253,#254);
#213=EDGE_LOOP('',(#255));
#214=EDGE_LOOP('',(#256));
#215=AXIS2_PLACEMENT_3D('',#257,#258,#259);
#216=EDGE_LOOP('',(#260));
#217=EDGE_LOOP('',(#261));
#218=AXIS2_PLACEMENT_3D('',#262,#263,#264);
#219=EDGE_LOOP('',(#265));
#220=EDGE_LOOP('',(#266));
#221=AXIS2_PLACEMENT_3D('',#267,#268,#269);
#222=EDGE_LOOP('',(#270));
#223=EDGE_LOOP('',(#271));
#224=AXIS2_PLACEMENT_3D('',#272,#273,#274);
#225=EDGE_LOOP('',(#275));
#226=EDGE_LOOP('',(#276));
#227=AXIS2_PLACEMENT_3D('',#277,#278,#279);
#228=EDGE_LOOP('',(#280));
#229=EDGE_LOOP('',(#281));
#230=AXIS2_PLACEMENT_3D('',#282,#283,#284);
#231=EDGE_LOOP('',(#285));
#232=EDGE_LOOP('',(#286));
#233=AXIS2_PLACEMENT_3D('',#287,#288,#289);
#234=EDGE_LOOP('',(#290));
#235=EDGE_LOOP('',(#291));
#236=AXIS2_PLACEMENT_3D('',#292,#293,#294);
#237=EDGE_LOOP('',(#295));
#238=EDGE_LOOP('',(#296));
#239=AXIS2_PLACEMENT_3D('',#297,#298,#299);
#240=ORIENTED_EDGE('',*,*,#300,.T.);
#241=ORIENTED_EDGE('',*,*,#301,.F.);
#242=CARTESIAN_POINT('',(0.0,0.0,0.012));
#243=DIRECTION('',(-0.0,6.12323399573677E-017,1.0));
#244=DIRECTION('',(0.0,-1.0,6.12323399573677E-017));
#245=ORIENTED_EDGE('',*,*,#302,.T.);
#246=ORIENTED_EDGE('',*,*,#300,.F.);
#247=CARTESIAN_POINT('',(0.0,0.0,1.0842021724855E-019));
#248=DIRECTION('',(0.0,-6.12323399573677E-017,-1.0));
#249=DIRECTION('',(0.0,1.0,-6.12323399573677E-017));
#250=ORIENTED_EDGE('',*,*,#301,.T.);
#251=ORIENTED_EDGE('',*,*,#303,.F.);
#252=CARTESIAN_POINT('',(0.0134,0.0,0.012));
#253=DIRECTION('',(0.0,6.12323399573677E-017,1.0));
#254=DIRECTION('',(0.0,-1.0,6.12323399573677E-017));
#255=ORIENTED_EDGE('',*,*,#304,.T.);
#256=ORIENTED_EDGE('',*,*,#302,.F.);
#257=CARTESIAN_POINT('',(0.0,0.0,0.0006));
#258=DIRECTION('',(0.0,-6.12323399573677E-017,-1.0));
#259=DIRECTION('',(0.0,1.0,-6.12323399573677E-017));
#260=ORIENTED_EDGE('',*,*,#305,.T.);
#261=ORIENTED_EDGE('',*,*,#304,.F.);
#262=CARTESIAN_POINT('',(0.0086,0.0,1.0842021724855E-019));
#263=DIRECTION('',(0.0,-6.12323399573677E-017,-1.0));
#264=DIRECTION('',(0.0,1.0,-6.12323399573677E-017));
#265=ORIENTED_EDGE('',*,*,#306,.T.);
#266=ORIENTED_EDGE('',*,*,#305,.F.);
#267=CARTESIAN_POINT('',(0.0,0.0,1.0842021724855E-019));
#268=DIRECTION('',(-0.0,6.12323399573677E-017,1.0));
#269=DIRECTION('',(0.0,-1.0,6.12323399573677E-017));
#270=ORIENTED_EDGE('',*,*,#307,.T.);
#271=ORIENTED_EDGE('',*,*,#306,.F.);
#272=CARTESIAN_POINT('',(0.0,0.0,1.0842021724855E-019));
#273=DIRECTION('',(0.0,-6.12323399573677E-017,-1.0));
#274=DIRECTION('',(0.0,1.0,-6.12323399573677E-017));
#275=ORIENTED_EDGE('',*,*,#308,.T.);
#276=ORIENTED_EDGE('',*,*,#307,.F.);
#277=CARTESIAN_POINT('',(0.0,0.0,0.0084));
#278=DIRECTION('',(0.0,-6.12323399573677E-017,-1.0));
#279=DIRECTION('',(0.0,1.0,-6.12323399573677E-017));
#280=ORIENTED_EDGE('',*,*,#309,.T.);
#281=ORIENTED_EDGE('',*,*,#308,.F.);
#282=CARTESIAN_POINT('',(0.0116,0.0,0.009));
#283=DIRECTION('',(0.0,-6.12323399573677E-017,-1.0));
#284=DIRECTION('',(0.0,1.0,-6.12323399573677E-017));
#285=ORIENTED_EDGE('',*,*,#310,.T.);
#286=ORIENTED_EDGE('',*,*,#309,.F.);
#287=CARTESIAN_POINT('',(0.0,0.0,0.009));
#288=DIRECTION('',(-0.0,6.12323399573677E-017,1.0));
#289=DIRECTION('',(0.0,-1.0,6.12323399573677E-017));
#290=ORIENTED_EDGE('',*,*,#311,.T.);
#291=ORIENTED_EDGE('',*,*,#310,.F.);
#292=CARTESIAN_POINT('',(0.0,0.0,1.0842021724855E-019));
#293=DIRECTION('',(0.0,-6.12323399573677E-017,-1.0));
#294=DIRECTION('',(0.0,1.0,-6.12323399573677E-017));
#295=ORIENTED_EDGE('',*,*,#303,.T.);
#296=ORIENTED_EDGE('',*,*,#311,.F.);
#297=CARTESIAN_POINT('',(0.0,0.0,0.0114));
#298=DIRECTION('',(0.0,-6.12323399573677E-017,-1.0));
#299=DIRECTION('',(0.0,1.0,-6.12323399573677E-017));
#300=EDGE_CURVE('',#312,#312,#313,.T.);
#301=EDGE_CURVE('',#314,#314,#315,.T.);
#302=EDGE_CURVE('',#316,#316,#317,.T.);
#303=EDGE_CURVE('',#318,#318,#319,.T.);
#304=EDGE_CURVE('',#320,#320,#321,.T.);
#305=EDGE_CURVE('',#322,#322,#323,.T.);
#306=EDGE_CURVE('',#324,#324,#325,.T.);
#307=EDGE_CURVE('',#326,#326,#327,.T.);
#308=EDGE_CURVE('',#328,#328,#329,.T.);
#309=EDGE_CURVE('',#330,#330,#331,.T.);
#310=EDGE_CURVE('',#332,#332,#333,.T.);
#311=EDGE_CURVE('',#334,#334,#335,.T.);
#312=VERTEX_POINT('',#336);
#313=CIRCLE('',#337,0.008);
#314=VERTEX_POINT('',#338);
#315=CIRCLE('',#339,0.0086);
#316=VERTEX_POINT('',#340);
#317=CIRCLE('',#341,0.008);
#318=VERTEX_POINT('',#342);
#319=CIRCLE('',#343,0.0134);
#320=VERTEX_POINT('',#344);
#321=CIRCLE('',#345,0.0086);
#322=VERTEX_POINT('',#346);
#323=CIRCLE('',#347,0.0104);
#324=VERTEX_POINT('',#348);
#325=CIRCLE('',#349,0.011);
#326=VERTEX_POINT('',#350);
#327=CIRCLE('',#351,0.011);
#328=VERTEX_POINT('',#352);
#329=CIRCLE('',#353,0.0116);
#330=VERTEX_POINT('',#354);
#331=CIRCLE('',#355,0.0134);
#332=VERTEX_POINT('',#356);
#333=CIRCLE('',#357,0.014);
#334=VERTEX_POINT('',#358);
#335=CIRCLE('',#359,0.014);
#336=CARTESIAN_POINT('',(0.008,0.0,0.0114));
#337=AXIS2_PLACEMENT_3D('',#360,#361,#362);
#338=CARTESIAN_POINT('',(0.0086,0.0,0.012));
#339=AXIS2_PLACEMENT_3D('',#363,#364,#365);
#340=CARTESIAN_POINT('',(0.008,0.0,0.0006));
#341=AXIS2_PLACEMENT_3D('',#366,#367,#368);
#342=CARTESIAN_POINT('',(0.0134,0.0,0.012));
#343=AXIS2_PLACEMENT_3D('',#369,#370,#371);
#344=CARTESIAN_POINT('',(0.0086,0.0,1.0842021724855E-019));
#345=AXIS2_PLACEMENT_3D('',#372,#373,#374);
#346=CARTESIAN_POINT('',(0.0104,0.0,1.0842021724855E-019));
#347=AXIS2_PLACEMENT_3D('',#375,#376,#377);
#348=CARTESIAN_POINT('',(0.011,0.0,0.0006));
#349=AXIS2_PLACEMENT_3D('',#378,#379,#380);
#350=CARTESIAN_POINT('',(0.011,0.0,0.0084));
#351=AXIS2_PLACEMENT_3D('',#381,#382,#383);
#352=CARTESIAN_POINT('',(0.0116,0.0,0.009));
#353=AXIS2_PLACEMENT_3D('',#384,#385,#386);
#354=CARTESIAN_POINT('',(0.0134,0.0,0.009));
#355=AXIS2_PLACEMENT_3D('',#387,#388,#389);
#356=CARTESIAN_POINT('',(0.014,0.0,0.0096));
#357=AXIS2_PLACEMENT_3D('',#390,#391,#392);
#358=CARTESIAN_POINT('',(0.014,0.0,0.0114));
#359=AXIS2_PLACEMENT_3D('',#393,#394,#395);
#360=CARTESIAN_POINT('',(0.0,0.0,0.0114));
#361=DIRECTION('',(0.0,-6.12323399573677E-017,-1.0));
#362=DIRECTION('',(0.0,1.0,-6.12323399573677E-017));
#363=CARTESIAN_POINT('',(0.0,0.0,0.012));
#364=DIRECTION('',(0.0,-6.12323399573677E-017,-1.0));
#365=DIRECTION('',(0.0,1.0,-6.12323399573677E-017));
#366=CARTESIAN_POINT('',(0.0,0.0,0.0006));
#367=DIRECTION('',(0.0,-6.12323399573677E-017,-1.0));
#368=DIRECTION('',(0.0,1.0,-6.12323399573677E-017));
#369=CARTESIAN_POINT('',(0.0,0.0,0.012));
#370=DIRECTION('',(0.0,-6.12323399573677E-017,-1.0));
#371=DIRECTION('',(0.0,1.0,-6.12323399573677E-017));
#372=CARTESIAN_POINT('',(0.0,0.0,1.0842021724855E-019));
#373=DIRECTION('',(0.0,-6.12323399573677E-017,-1.0));
#374=DIRECTION('',(0.0,1.0,-6.12323399573677E-017));
#375=CARTESIAN_POINT('',(0.0,0.0,1.0842021724855E-019));
#376=DIRECTION('',(0.0,-6.12323399573677E-017,-1.0));
#377=DIRECTION('',(0.0,1.0,-6.12323399573677E-017));
#378=CARTESIAN_POINT('',(0.0,0.0,0.0006));
#379=DIRECTION('',(0.0,-6.12323399573677E-017,-1.0));
#380=DIRECTION('',(0.0,1.0,-6.12323399573677E-017));
#381=CARTESIAN_POINT('',(0.0,0.0,0.0084));
#382=DIRECTION('',(0.0,-6.12323399573677E-017,-1.0));
#383=DIRECTION('',(0.0,1.0,-6.12323399573677E-017));
#384=CARTESIAN_POINT('',(0.0,0.0,0.009));
#385=DIRECTION('',(0.0,-6.12323399573677E-017,-1.0));
#386=DIRECTION('',(0.0,1.0,-6.12323399573677E-017));
#387=CARTESIAN_POINT('',(0.0,0.0,0.009));
#388=DIRECTION('',(0.0,-6.12323399573677E-017,-1.0));
#389=DIRECTION('',(0.0,1.0,-6.12323399573677E-017));
#390=CARTESIAN_POINT('',(0.0,0.0,0.0096));
#391=DIRECTION('',(0.0,-6.12323399573677E-017,-1.0));
#392=DIRECTION('',(0.0,1.0,-6.12323399573677E-017));
#393=CARTESIAN_POINT('',(0.0,0.0,0.0114));
#394=DIRECTION('',(0.0,-6.12323399573677E-017,-1.0));
#395=DIRECTION('',(0.0,1.0,-6.12323399573677E-017));
ENDSEC;
END-ISO-10303-21;
