ISO-10303-21;
HEADER;
FILE_DESCRIPTION(('STEP AP203'),'1');
FILE_NAME('590-LMF210120.stp','2018-04-20T12:59:20',(' '),(' '),'Spatial InterOp 3D',' ',' ');
FILE_SCHEMA(('CONFIG_CONTROL_DESIGN'));
ENDSEC;
DATA;
#1=DESIGN_CONTEXT('',#51,'design');
#2=APPLICATION_PROTOCOL_DEFINITION('INTERNATIONAL STANDARD','config_control_design',1994,#51);
#3=PRODUCT_CATEGORY_RELATIONSHIP('NONE','NONE',#52,#53);
#4=DATE_AND_TIME(#54,#55);
#5=DATE_TIME_ROLE('creation_date');
#6=DATE_TIME_ROLE('classification_date');
#7=PERSON_AND_ORGANIZATION_ROLE('creator');
#8=PERSON_AND_ORGANIZATION_ROLE('design_supplier');
#9=PERSON_AND_ORGANIZATION_ROLE('classification_officer');
#10=PERSON_AND_ORGANIZATION_ROLE('design_owner');
#11=APPROVAL_PERSON_ORGANIZATION(#56,#57,#58);
#12=APPROVAL_DATE_TIME(#4,#57);
#13=CC_DESIGN_APPROVAL(#57,(#59,#60,#61));
#14=CC_DESIGN_DATE_AND_TIME_ASSIGNMENT(#4,#5,(#61));
#15=CC_DESIGN_DATE_AND_TIME_ASSIGNMENT(#4,#6,(#59));
#16=CC_DESIGN_PERSON_AND_ORGANIZATION_ASSIGNMENT(#56,#10,(#62));
#17=CC_DESIGN_PERSON_AND_ORGANIZATION_ASSIGNMENT(#56,#7,(#61));
#18=CC_DESIGN_PERSON_AND_ORGANIZATION_ASSIGNMENT(#56,#7,(#60));
#19=CC_DESIGN_PERSON_AND_ORGANIZATION_ASSIGNMENT(#56,#8,(#60));
#20=CC_DESIGN_SECURITY_CLASSIFICATION(#59,(#60));
#21=CC_DESIGN_PERSON_AND_ORGANIZATION_ASSIGNMENT(#56,#9,(#59));
#22=SHAPE_DEFINITION_REPRESENTATION(#63,#64);
#23=DESIGN_CONTEXT('',#65,'design');
#24=APPLICATION_PROTOCOL_DEFINITION('INTERNATIONAL STANDARD','config_control_design',1994,#65);
#25=PRODUCT_CATEGORY_RELATIONSHIP('NONE','NONE',#66,#67);
#26=DATE_AND_TIME(#68,#69);
#27=DATE_TIME_ROLE('creation_date');
#28=DATE_TIME_ROLE('classification_date');
#29=PERSON_AND_ORGANIZATION_ROLE('creator');
#30=PERSON_AND_ORGANIZATION_ROLE('design_supplier');
#31=PERSON_AND_ORGANIZATION_ROLE('classification_officer');
#32=PERSON_AND_ORGANIZATION_ROLE('design_owner');
#33=APPROVAL_PERSON_ORGANIZATION(#70,#71,#72);
#34=APPROVAL_DATE_TIME(#26,#71);
#35=CC_DESIGN_APPROVAL(#71,(#73,#74,#75));
#36=CC_DESIGN_DATE_AND_TIME_ASSIGNMENT(#26,#27,(#75));
#37=CC_DESIGN_DATE_AND_TIME_ASSIGNMENT(#26,#28,(#73));
#38=CC_DESIGN_PERSON_AND_ORGANIZATION_ASSIGNMENT(#70,#32,(#76));
#39=CC_DESIGN_PERSON_AND_ORGANIZATION_ASSIGNMENT(#70,#29,(#75));
#40=CC_DESIGN_PERSON_AND_ORGANIZATION_ASSIGNMENT(#70,#29,(#74));
#41=CC_DESIGN_PERSON_AND_ORGANIZATION_ASSIGNMENT(#70,#30,(#74));
#42=CC_DESIGN_SECURITY_CLASSIFICATION(#73,(#74));
#43=CC_DESIGN_PERSON_AND_ORGANIZATION_ASSIGNMENT(#70,#31,(#73));
#44=CONTEXT_DEPENDENT_SHAPE_REPRESENTATION(#77,#78);
#45=SHAPE_DEFINITION_REPRESENTATION(#79,#80);
#46=SHAPE_REPRESENTATION_RELATIONSHIP('NONE','NONE',#80,#81);
#47= (GEOMETRIC_REPRESENTATION_CONTEXT(3)GLOBAL_UNCERTAINTY_ASSIGNED_CONTEXT((#84))GLOBAL_UNIT_ASSIGNED_CONTEXT((#86,#87,#88))REPRESENTATION_CONTEXT('NONE','WORKSPACE'));
#51=APPLICATION_CONTEXT('CONFIGURATION CONTROLLED 3D DESIGNS OF MECHANICAL PARTS AND ASSEMBLIES');
#52=PRODUCT_CATEGORY('part','NONE');
#53=PRODUCT_RELATED_PRODUCT_CATEGORY('detail',' ',(#62));
#54=CALENDAR_DATE(2018,20,3);
#55=LOCAL_TIME(14,59,20.0,#90);
#56=PERSON_AND_ORGANIZATION(#91,#92);
#57=APPROVAL(#93,'SOLID MODEL');
#58=APPROVAL_ROLE('APPROVED');
#59=SECURITY_CLASSIFICATION('','',#94);
#60=PRODUCT_DEFINITION_FORMATION_WITH_SPECIFIED_SOURCE(' ','NONE',#62,.NOT_KNOWN.);
#61=PRODUCT_DEFINITION('NONE','NONE',#60,#1);
#62=PRODUCT('','','PART--DESC',(#95));
#63=PRODUCT_DEFINITION_SHAPE('NONE','NONE',#61);
#64=SHAPE_REPRESENTATION('',(#96,#97),#98);
#65=APPLICATION_CONTEXT('CONFIGURATION CONTROLLED 3D DESIGNS OF MECHANICAL PARTS AND ASSEMBLIES');
#66=PRODUCT_CATEGORY('part','NONE');
#67=PRODUCT_RELATED_PRODUCT_CATEGORY('detail',' ',(#76));
#68=CALENDAR_DATE(2018,20,3);
#69=LOCAL_TIME(14,59,20.0,#99);
#70=PERSON_AND_ORGANIZATION(#100,#101);
#71=APPROVAL(#102,'SOLID MODEL');
#72=APPROVAL_ROLE('APPROVED');
#73=SECURITY_CLASSIFICATION('','',#103);
#74=PRODUCT_DEFINITION_FORMATION_WITH_SPECIFIED_SOURCE(' ','NONE',#76,.NOT_KNOWN.);
#75=PRODUCT_DEFINITION('590-LMF210x120','590-LMF210x120',#74,#23);
#76=PRODUCT('590-LMF210x120','590-LMF210x120','PART-590-LMF210x120-DESC',(#104));
#77=(REPRESENTATION_RELATIONSHIP('','',#80,#64)REPRESENTATION_RELATIONSHIP_WITH_TRANSFORMATION(#107)SHAPE_REPRESENTATION_RELATIONSHIP());
#78=PRODUCT_DEFINITION_SHAPE('NAUO-PROD-DEF','NAUO-PROD-DEF',#109);
#79=PRODUCT_DEFINITION_SHAPE('NONE','NONE',#75);
#80=SHAPE_REPRESENTATION('590-LMF210x120',(#96),#98);
#81=ADVANCED_BREP_SHAPE_REPRESENTATION('',(#110),#47);
#84=UNCERTAINTY_MEASURE_WITH_UNIT(LENGTH_MEASURE(1.0E-006),#86,'','');
#86= (CONVERSION_BASED_UNIT('METRE',#113)LENGTH_UNIT()NAMED_UNIT(#116));
#87= (NAMED_UNIT(#118)PLANE_ANGLE_UNIT()SI_UNIT($,.RADIAN.));
#88= (NAMED_UNIT(#118)SOLID_ANGLE_UNIT()SI_UNIT($,.STERADIAN.));
#90=COORDINATED_UNIVERSAL_TIME_OFFSET(1,0,.AHEAD.);
#91=PERSON('','UNSPECIFIED',$,$,$,$);
#92=ORGANIZATION('UNSPECIFIED','UNSPECIFIED','UNSPECIFIED');
#93=APPROVAL_STATUS('approved');
#94=SECURITY_CLASSIFICATION_LEVEL('unclassified');
#95=MECHANICAL_CONTEXT('',#51,'mechanical');
#96=AXIS2_PLACEMENT_3D('',#124,#125,#126);
#97=AXIS2_PLACEMENT_3D('',#127,#128,#129);
#98= (GEOMETRIC_REPRESENTATION_CONTEXT(3)GLOBAL_UNCERTAINTY_ASSIGNED_CONTEXT((#132))GLOBAL_UNIT_ASSIGNED_CONTEXT((#134,#135,#136))REPRESENTATION_CONTEXT('NONE','WORKSPACE'));
#99=COORDINATED_UNIVERSAL_TIME_OFFSET(1,0,.AHEAD.);
#100=PERSON('','UNSPECIFIED',$,$,$,$);
#101=ORGANIZATION('UNSPECIFIED','UNSPECIFIED','UNSPECIFIED');
#102=APPROVAL_STATUS('approved');
#103=SECURITY_CLASSIFICATION_LEVEL('unclassified');
#104=MECHANICAL_CONTEXT('',#65,'mechanical');
#107=ITEM_DEFINED_TRANSFORMATION('','',#96,#97);
#109=NEXT_ASSEMBLY_USAGE_OCCURRENCE('590-LMF210x120','590-LMF210x120','590-LMF210x120',#61,#75,$);
#110=MANIFOLD_SOLID_BREP('',#138);
#113=LENGTH_MEASURE_WITH_UNIT(LENGTH_MEASURE(1.0),#139);
#116=DIMENSIONAL_EXPONENTS(1.0,0.0,0.0,0.0,0.0,0.0,0.0);
#118=DIMENSIONAL_EXPONENTS(0.0,0.0,0.0,0.0,0.0,0.0,0.0);
#124=CARTESIAN_POINT('',(0.0,0.0,0.0));
#125=DIRECTION('',(0.0,0.0,1.0));
#126=DIRECTION('',(1.0,0.0,0.0));
#127=CARTESIAN_POINT('',(0.0,0.0,0.0));
#128=DIRECTION('',(5.48707263966374E-016,-5.48707263966374E-016,1.0));
#129=DIRECTION('',(-1.60812264967663E-016,1.0,5.48707263966374E-016));
#132=UNCERTAINTY_MEASURE_WITH_UNIT(LENGTH_MEASURE(1.0E-006),#134,'','');
#134= (CONVERSION_BASED_UNIT('METRE',#142)LENGTH_UNIT()NAMED_UNIT(#145));
#135= (NAMED_UNIT(#147)PLANE_ANGLE_UNIT()SI_UNIT($,.RADIAN.));
#136= (NAMED_UNIT(#147)SOLID_ANGLE_UNIT()SI_UNIT($,.STERADIAN.));
#138=CLOSED_SHELL('',(#153,#154,#155,#156,#157,#158,#159,#160,#161,#162,#163,#164,#165,#166,#167,#168));
#139= (NAMED_UNIT(#116)LENGTH_UNIT()SI_UNIT($,.METRE.));
#142=LENGTH_MEASURE_WITH_UNIT(LENGTH_MEASURE(1.0),#170);
#145=DIMENSIONAL_EXPONENTS(1.0,0.0,0.0,0.0,0.0,0.0,0.0);
#147=DIMENSIONAL_EXPONENTS(0.0,0.0,0.0,0.0,0.0,0.0,0.0);
#153=ADVANCED_FACE('',(#171),#172,.F.);
#154=ADVANCED_FACE('',(#173),#174,.T.);
#155=ADVANCED_FACE('',(#175),#176,.F.);
#156=ADVANCED_FACE('',(#177,#178),#179,.T.);
#157=ADVANCED_FACE('',(#180,#181),#182,.T.);
#158=ADVANCED_FACE('',(#183,#184),#185,.T.);
#159=ADVANCED_FACE('',(#186,#187),#188,.T.);
#160=ADVANCED_FACE('',(#189,#190),#191,.T.);
#161=ADVANCED_FACE('',(#192,#193),#194,.T.);
#162=ADVANCED_FACE('',(#195,#196),#197,.T.);
#163=ADVANCED_FACE('',(#198,#199),#200,.F.);
#164=ADVANCED_FACE('',(#201,#202),#203,.F.);
#165=ADVANCED_FACE('',(#204,#205,#206),#207,.F.);
#166=ADVANCED_FACE('',(#208,#209),#210,.T.);
#167=ADVANCED_FACE('',(#211),#212,.F.);
#168=ADVANCED_FACE('',(#213),#214,.T.);
#170= (NAMED_UNIT(#145)LENGTH_UNIT()SI_UNIT($,.METRE.));
#171=FACE_OUTER_BOUND('',#216,.T.);
#172=CYLINDRICAL_SURFACE('',#217,0.00275);
#173=FACE_OUTER_BOUND('',#218,.T.);
#174=PLANE('',#219);
#175=FACE_OUTER_BOUND('',#220,.T.);
#176=CYLINDRICAL_SURFACE('',#221,0.00275);
#177=FACE_BOUND('',#222,.T.);
#178=FACE_OUTER_BOUND('',#223,.T.);
#179=CONICAL_SURFACE('',#224,0.1225,0.785398163397445);
#180=FACE_OUTER_BOUND('',#225,.T.);
#181=FACE_OUTER_BOUND('',#226,.T.);
#182=CYLINDRICAL_SURFACE('',#227,0.1225);
#183=FACE_OUTER_BOUND('',#228,.T.);
#184=FACE_BOUND('',#229,.T.);
#185=CONICAL_SURFACE('',#230,0.1205,0.785398163397448);
#186=FACE_OUTER_BOUND('',#231,.T.);
#187=FACE_BOUND('',#232,.T.);
#188=PLANE('',#233);
#189=FACE_OUTER_BOUND('',#234,.T.);
#190=FACE_OUTER_BOUND('',#235,.T.);
#191=CYLINDRICAL_SURFACE('',#236,0.115);
#192=FACE_OUTER_BOUND('',#237,.T.);
#193=FACE_BOUND('',#238,.T.);
#194=CONICAL_SURFACE('',#239,0.113,0.785398163397442);
#195=FACE_OUTER_BOUND('',#240,.T.);
#196=FACE_BOUND('',#241,.T.);
#197=PLANE('',#242);
#198=FACE_OUTER_BOUND('',#243,.T.);
#199=FACE_BOUND('',#244,.T.);
#200=CONICAL_SURFACE('',#245,0.105,0.785398163397448);
#201=FACE_BOUND('',#246,.T.);
#202=FACE_OUTER_BOUND('',#247,.T.);
#203=CONICAL_SURFACE('',#248,0.107,0.785398163397445);
#204=FACE_OUTER_BOUND('',#249,.T.);
#205=FACE_OUTER_BOUND('',#250,.T.);
#206=FACE_BOUND('',#251,.T.);
#207=CYLINDRICAL_SURFACE('',#252,0.105);
#208=FACE_BOUND('',#253,.T.);
#209=FACE_OUTER_BOUND('',#254,.T.);
#210=PLANE('',#255);
#211=FACE_OUTER_BOUND('',#256,.T.);
#212=PLANE('',#257);
#213=FACE_OUTER_BOUND('',#258,.T.);
#214=PLANE('',#259);
#216=EDGE_LOOP('',(#260,#261,#262,#263));
#217=AXIS2_PLACEMENT_3D('',#264,#265,#266);
#218=EDGE_LOOP('',(#267,#268,#269,#270));
#219=AXIS2_PLACEMENT_3D('',#271,#272,#273);
#220=EDGE_LOOP('',(#274,#275,#276,#277));
#221=AXIS2_PLACEMENT_3D('',#278,#279,#280);
#222=EDGE_LOOP('',(#281));
#223=EDGE_LOOP('',(#282));
#224=AXIS2_PLACEMENT_3D('',#283,#284,#285);
#225=EDGE_LOOP('',(#286));
#226=EDGE_LOOP('',(#287));
#227=AXIS2_PLACEMENT_3D('',#288,#289,#290);
#228=EDGE_LOOP('',(#291));
#229=EDGE_LOOP('',(#292));
#230=AXIS2_PLACEMENT_3D('',#293,#294,#295);
#231=EDGE_LOOP('',(#296));
#232=EDGE_LOOP('',(#297));
#233=AXIS2_PLACEMENT_3D('',#298,#299,#300);
#234=EDGE_LOOP('',(#301));
#235=EDGE_LOOP('',(#302));
#236=AXIS2_PLACEMENT_3D('',#303,#304,#305);
#237=EDGE_LOOP('',(#306));
#238=EDGE_LOOP('',(#307));
#239=AXIS2_PLACEMENT_3D('',#308,#309,#310);
#240=EDGE_LOOP('',(#311));
#241=EDGE_LOOP('',(#312));
#242=AXIS2_PLACEMENT_3D('',#313,#314,#315);
#243=EDGE_LOOP('',(#316));
#244=EDGE_LOOP('',(#317));
#245=AXIS2_PLACEMENT_3D('',#318,#319,#320);
#246=EDGE_LOOP('',(#321));
#247=EDGE_LOOP('',(#322));
#248=AXIS2_PLACEMENT_3D('',#323,#324,#325);
#249=EDGE_LOOP('',(#326));
#250=EDGE_LOOP('',(#327));
#251=EDGE_LOOP('',(#328,#329,#330,#331));
#252=AXIS2_PLACEMENT_3D('',#332,#333,#334);
#253=EDGE_LOOP('',(#335));
#254=EDGE_LOOP('',(#336));
#255=AXIS2_PLACEMENT_3D('',#337,#338,#339);
#256=EDGE_LOOP('',(#340,#341,#342,#343));
#257=AXIS2_PLACEMENT_3D('',#344,#345,#346);
#258=EDGE_LOOP('',(#347,#348,#349,#350));
#259=AXIS2_PLACEMENT_3D('',#351,#352,#353);
#260=ORIENTED_EDGE('',*,*,#354,.F.);
#261=ORIENTED_EDGE('',*,*,#355,.T.);
#262=ORIENTED_EDGE('',*,*,#356,.T.);
#263=ORIENTED_EDGE('',*,*,#357,.F.);
#264=CARTESIAN_POINT('',(1.91643576008538E-015,-0.107500000000001,0.00775));
#265=DIRECTION('',(0.0,1.0,0.0));
#266=DIRECTION('',(0.0,0.0,1.0));
#267=ORIENTED_EDGE('',*,*,#358,.F.);
#268=ORIENTED_EDGE('',*,*,#359,.T.);
#269=ORIENTED_EDGE('',*,*,#354,.T.);
#270=ORIENTED_EDGE('',*,*,#360,.F.);
#271=CARTESIAN_POINT('',(-0.00274999999999809,-0.107500000000001,0.11225));
#272=DIRECTION('',(1.0,0.0,1.20351628716094E-016));
#273=DIRECTION('',(-1.20351628716094E-016,0.0,1.0));
#274=ORIENTED_EDGE('',*,*,#361,.F.);
#275=ORIENTED_EDGE('',*,*,#362,.T.);
#276=ORIENTED_EDGE('',*,*,#358,.T.);
#277=ORIENTED_EDGE('',*,*,#363,.F.);
#278=CARTESIAN_POINT('',(1.91014738748496E-015,-0.107500000000001,0.11225));
#279=DIRECTION('',(0.0,1.0,0.0));
#280=DIRECTION('',(0.0,0.0,1.0));
#281=ORIENTED_EDGE('',*,*,#364,.T.);
#282=ORIENTED_EDGE('',*,*,#365,.F.);
#283=CARTESIAN_POINT('',(0.0,6.93889390390723E-018,0.118));
#284=DIRECTION('',(0.0,-6.12323399573677E-017,-1.0));
#285=DIRECTION('',(0.0,1.0,-6.12323399573677E-017));
#286=ORIENTED_EDGE('',*,*,#365,.T.);
#287=ORIENTED_EDGE('',*,*,#366,.F.);
#288=CARTESIAN_POINT('',(0.0,0.0,0.0));
#289=DIRECTION('',(0.0,-6.12323399573677E-017,-1.0));
#290=DIRECTION('',(0.0,1.0,-6.12323399573677E-017));
#291=ORIENTED_EDGE('',*,*,#366,.T.);
#292=ORIENTED_EDGE('',*,*,#367,.F.);
#293=CARTESIAN_POINT('',(0.0,6.93889390390723E-018,0.11));
#294=DIRECTION('',(-0.0,6.12323399573677E-017,1.0));
#295=DIRECTION('',(0.0,-1.0,6.12323399573677E-017));
#296=ORIENTED_EDGE('',*,*,#367,.T.);
#297=ORIENTED_EDGE('',*,*,#368,.F.);
#298=CARTESIAN_POINT('',(0.115,6.93889390390723E-018,0.11));
#299=DIRECTION('',(0.0,-6.12323399573677E-017,-1.0));
#300=DIRECTION('',(0.0,1.0,-6.12323399573677E-017));
#301=ORIENTED_EDGE('',*,*,#368,.T.);
#302=ORIENTED_EDGE('',*,*,#369,.F.);
#303=CARTESIAN_POINT('',(0.0,0.0,0.0));
#304=DIRECTION('',(0.0,-6.12323399573677E-017,-1.0));
#305=DIRECTION('',(0.0,1.0,-6.12323399573677E-017));
#306=ORIENTED_EDGE('',*,*,#369,.T.);
#307=ORIENTED_EDGE('',*,*,#370,.F.);
#308=CARTESIAN_POINT('',(0.0,0.0,0.0));
#309=DIRECTION('',(-0.0,6.12323399573677E-017,1.0));
#310=DIRECTION('',(0.0,-1.0,6.12323399573677E-017));
#311=ORIENTED_EDGE('',*,*,#370,.T.);
#312=ORIENTED_EDGE('',*,*,#371,.F.);
#313=CARTESIAN_POINT('',(0.107,0.0,0.0));
#314=DIRECTION('',(0.0,-6.12323399573677E-017,-1.0));
#315=DIRECTION('',(0.0,1.0,-6.12323399573677E-017));
#316=ORIENTED_EDGE('',*,*,#371,.T.);
#317=ORIENTED_EDGE('',*,*,#372,.F.);
#318=CARTESIAN_POINT('',(0.0,0.0,0.002));
#319=DIRECTION('',(0.0,-6.12323399573677E-017,-1.0));
#320=DIRECTION('',(0.0,1.0,-6.12323399573677E-017));
#321=ORIENTED_EDGE('',*,*,#373,.T.);
#322=ORIENTED_EDGE('',*,*,#374,.F.);
#323=CARTESIAN_POINT('',(0.0,6.93889390390723E-018,0.12));
#324=DIRECTION('',(-0.0,6.12323399573677E-017,1.0));
#325=DIRECTION('',(0.0,-1.0,6.12323399573677E-017));
#326=ORIENTED_EDGE('',*,*,#372,.T.);
#327=ORIENTED_EDGE('',*,*,#373,.F.);
#328=ORIENTED_EDGE('',*,*,#375,.T.);
#329=ORIENTED_EDGE('',*,*,#363,.T.);
#330=ORIENTED_EDGE('',*,*,#360,.T.);
#331=ORIENTED_EDGE('',*,*,#357,.T.);
#332=CARTESIAN_POINT('',(0.0,0.0,0.0));
#333=DIRECTION('',(0.0,-6.12323399573677E-017,-1.0));
#334=DIRECTION('',(0.0,1.0,-6.12323399573677E-017));
#335=ORIENTED_EDGE('',*,*,#374,.T.);
#336=ORIENTED_EDGE('',*,*,#364,.F.);
#337=CARTESIAN_POINT('',(0.1205,6.93889390390723E-018,0.12));
#338=DIRECTION('',(0.0,6.12323399573677E-017,1.0));
#339=DIRECTION('',(0.0,-1.0,6.12323399573677E-017));
#340=ORIENTED_EDGE('',*,*,#362,.F.);
#341=ORIENTED_EDGE('',*,*,#376,.F.);
#342=ORIENTED_EDGE('',*,*,#355,.F.);
#343=ORIENTED_EDGE('',*,*,#359,.F.);
#344=CARTESIAN_POINT('',(1.91014738748496E-015,-0.107500000000001,0.11225));
#345=DIRECTION('',(0.0,-1.0,0.0));
#346=DIRECTION('',(0.0,0.0,-1.0));
#347=ORIENTED_EDGE('',*,*,#356,.F.);
#348=ORIENTED_EDGE('',*,*,#376,.T.);
#349=ORIENTED_EDGE('',*,*,#361,.T.);
#350=ORIENTED_EDGE('',*,*,#375,.F.);
#351=CARTESIAN_POINT('',(0.00275000000000192,-0.107500000000001,0.00775));
#352=DIRECTION('',(-1.0,0.0,0.0));
#353=DIRECTION('',(0.0,1.0,0.0));
#354=EDGE_CURVE('',#377,#378,#379,.T.);
#355=EDGE_CURVE('',#377,#380,#381,.T.);
#356=EDGE_CURVE('',#380,#382,#383,.T.);
#357=EDGE_CURVE('',#378,#382,#384,.T.);
#358=EDGE_CURVE('',#385,#386,#387,.T.);
#359=EDGE_CURVE('',#385,#377,#388,.T.);
#360=EDGE_CURVE('',#386,#378,#389,.T.);
#361=EDGE_CURVE('',#390,#391,#392,.T.);
#362=EDGE_CURVE('',#390,#385,#393,.T.);
#363=EDGE_CURVE('',#391,#386,#394,.T.);
#364=EDGE_CURVE('',#395,#395,#396,.T.);
#365=EDGE_CURVE('',#397,#397,#398,.T.);
#366=EDGE_CURVE('',#399,#399,#400,.T.);
#367=EDGE_CURVE('',#401,#401,#402,.T.);
#368=EDGE_CURVE('',#403,#403,#404,.T.);
#369=EDGE_CURVE('',#405,#405,#406,.T.);
#370=EDGE_CURVE('',#407,#407,#408,.T.);
#371=EDGE_CURVE('',#409,#409,#410,.T.);
#372=EDGE_CURVE('',#411,#411,#412,.T.);
#373=EDGE_CURVE('',#413,#413,#414,.T.);
#374=EDGE_CURVE('',#415,#415,#416,.T.);
#375=EDGE_CURVE('',#382,#391,#417,.F.);
#376=EDGE_CURVE('',#380,#390,#418,.T.);
#377=VERTEX_POINT('',#419);
#378=VERTEX_POINT('',#420);
#379=LINE('',#421,#422);
#380=VERTEX_POINT('',#423);
#381=CIRCLE('',#424,0.00275);
#382=VERTEX_POINT('',#425);
#383=LINE('',#426,#427);
#384=B_SPLINE_CURVE_WITH_KNOTS('',3,(#428,#429,#430,#431,#432,#433,#434,#435,#436,#437,#438,#439,#440,#441,#442,#443,#444,#445,#446,#447,#448,#449,#450,#451,#452,#453,#454,#455,#456,#457,#458,#459,#460,#461),.UNSPECIFIED.,.F.,.F.,(4,2,2,2,2,2,2,2,2,2,2,2,2,2,2,2,4),(0.0,0.000537271862192976,0.00107454372438595,0.00161181558657893,0.0021490874487719,0.00268635931096488,0.00322363117315785,0.00376090303535083,0.0042981748975438,0.00483544675973678,0.00537271862192975,0.00590999048412273,0.0064472623463157,0.00698453420850868,0.00752180607070165,0.00805907793289463,0.0085963497950876),.UNSPECIFIED.);
#385=VERTEX_POINT('',#462);
#386=VERTEX_POINT('',#463);
#387=LINE('',#464,#465);
#388=LINE('',#466,#467);
#389=LINE('',#468,#469);
#390=VERTEX_POINT('',#470);
#391=VERTEX_POINT('',#471);
#392=LINE('',#472,#473);
#393=CIRCLE('',#474,0.00275);
#394=B_SPLINE_CURVE_WITH_KNOTS('',3,(#475,#476,#477,#478,#479,#480,#481,#482,#483,#484,#485,#486,#487,#488,#489,#490,#491,#492,#493,#494,#495,#496,#497,#498,#499,#500,#501,#502,#503,#504,#505,#506,#507,#508),.UNSPECIFIED.,.F.,.F.,(4,2,2,2,2,2,2,2,2,2,2,2,2,2,2,2,4),(0.0,0.000537271862192982,0.00107454372438596,0.00161181558657894,0.00214908744877193,0.00268635931096491,0.00322363117315789,0.00376090303535087,0.00429817489754385,0.00483544675973683,0.00537271862192982,0.0059099904841228,0.00644726234631578,0.00698453420850876,0.00752180607070174,0.00805907793289472,0.00859634979508771),.UNSPECIFIED.);
#395=VERTEX_POINT('',#509);
#396=CIRCLE('',#510,0.1205);
#397=VERTEX_POINT('',#511);
#398=CIRCLE('',#512,0.1225);
#399=VERTEX_POINT('',#513);
#400=CIRCLE('',#514,0.1225);
#401=VERTEX_POINT('',#515);
#402=CIRCLE('',#516,0.1205);
#403=VERTEX_POINT('',#517);
#404=CIRCLE('',#518,0.115);
#405=VERTEX_POINT('',#519);
#406=CIRCLE('',#520,0.115);
#407=VERTEX_POINT('',#521);
#408=CIRCLE('',#522,0.113);
#409=VERTEX_POINT('',#523);
#410=CIRCLE('',#524,0.107);
#411=VERTEX_POINT('',#525);
#412=CIRCLE('',#526,0.105);
#413=VERTEX_POINT('',#527);
#414=CIRCLE('',#528,0.105);
#415=VERTEX_POINT('',#529);
#416=CIRCLE('',#530,0.107);
#417=LINE('',#531,#532);
#418=LINE('',#533,#534);
#419=CARTESIAN_POINT('',(-0.00274999999999808,-0.107500000000001,0.00775));
#420=CARTESIAN_POINT('',(-0.00274999999999808,-0.104963981917608,0.00775));
#421=CARTESIAN_POINT('',(-0.00274999999999808,-0.107500000000001,0.00775));
#422=VECTOR('',#535,1.0);
#423=CARTESIAN_POINT('',(0.00275000000000192,-0.107500000000001,0.00775));
#424=AXIS2_PLACEMENT_3D('',#536,#537,#538);
#425=CARTESIAN_POINT('',(0.00275000000000192,-0.104963981917608,0.00775));
#426=CARTESIAN_POINT('',(0.00275000000000192,-0.107500000000001,0.00775));
#427=VECTOR('',#539,1.0);
#428=CARTESIAN_POINT('',(-0.00274999999999808,-0.104963981917608,0.00775));
#429=CARTESIAN_POINT('',(-0.00274999999999809,-0.104963981917608,0.0075683302478631));
#430=CARTESIAN_POINT('',(-0.00273217480185419,-0.104964453226361,0.00738969759662539));
#431=CARTESIAN_POINT('',(-0.00266233351064985,-0.104966247911101,0.00703825759727579));
#432=CARTESIAN_POINT('',(-0.00260946996253136,-0.104967592289251,0.00686363040933731));
#433=CARTESIAN_POINT('',(-0.00247145983711368,-0.104970932408745,0.00653062687821178));
#434=CARTESIAN_POINT('',(-0.00238700662474638,-0.104972911537788,0.00637268790670741));
#435=CARTESIAN_POINT('',(-0.00218748096800807,-0.104977258891445,0.00607377917817598));
#436=CARTESIAN_POINT('',(-0.00207134949123194,-0.104979643765748,0.00593225774291306));
#437=CARTESIAN_POINT('',(-0.00181766954524691,-0.10498434250555,0.00567858670171566));
#438=CARTESIAN_POINT('',(-0.00167925100603717,-0.104986678696119,0.00556475325382417));
#439=CARTESIAN_POINT('',(-0.00137869955430538,-0.104991055691055,0.0053637110774451));
#440=CARTESIAN_POINT('',(-0.00121866103622329,-0.104993058029301,0.00527827270104603));
#441=CARTESIAN_POINT('',(-0.000887805711229161,-0.104996376937894,0.00514109762913342));
#442=CARTESIAN_POINT('',(-0.000714555372950473,-0.104997718582306,0.00508829835026609));
#443=CARTESIAN_POINT('',(-0.000359612864745626,-0.104999534167813,0.00501761575895347));
#444=CARTESIAN_POINT('',(-0.000181197970549488,-0.104999996798897,0.00500012222396094));
#445=CARTESIAN_POINT('',(0.000177468854796123,-0.105000003167993,0.00499987904024869));
#446=CARTESIAN_POINT('',(0.000359621388672598,-0.1049995322382,0.00501769378099975));
#447=CARTESIAN_POINT('',(0.000712308069973996,-0.104997731951683,0.005087774984899));
#448=CARTESIAN_POINT('',(0.000883727633458071,-0.104996412987377,0.00513964197849897));
#449=CARTESIAN_POINT('',(0.00121666590721811,-0.104993082814137,0.00527721460681146));
#450=CARTESIAN_POINT('',(0.00137773332171134,-0.104991066594097,0.00536327515147506));
#451=CARTESIAN_POINT('',(0.00167578684235206,-0.104986732267134,0.0055622287442877));
#452=CARTESIAN_POINT('',(0.00181470607215662,-0.104984395692059,0.00567580704130556));
#453=CARTESIAN_POINT('',(0.00207154302800604,-0.104979641866594,0.00593226953556357));
#454=CARTESIAN_POINT('',(0.00218561138970406,-0.104977297715098,0.00607140332737063));
#455=CARTESIAN_POINT('',(0.00238489015106899,-0.104972959526149,0.00636910069031035));
#456=CARTESIAN_POINT('',(0.00247101796131049,-0.104970942877509,0.0065297137891715));
#457=CARTESIAN_POINT('',(0.00260922884273347,-0.104967598349227,0.0068628962587693));
#458=CARTESIAN_POINT('',(0.00266129898940496,-0.104966274253277,0.0070342836357807));
#459=CARTESIAN_POINT('',(0.00273178601952475,-0.10496446345344,0.00738653422644135));
#460=CARTESIAN_POINT('',(0.00275000000000191,-0.104963981917608,0.00756833028372726));
#461=CARTESIAN_POINT('',(0.00275000000000192,-0.104963981917608,0.00775));
#462=CARTESIAN_POINT('',(-0.00274999999999809,-0.107500000000001,0.11225));
#463=CARTESIAN_POINT('',(-0.00274999999999809,-0.104963981917608,0.11225));
#464=CARTESIAN_POINT('',(-0.00274999999999809,-0.107500000000001,0.11225));
#465=VECTOR('',#540,1.0);
#466=CARTESIAN_POINT('',(-0.00274999999999809,-0.107500000000001,0.11225));
#467=VECTOR('',#541,1.0);
#468=CARTESIAN_POINT('',(-0.00274999999999808,-0.104963981917608,6.09622324508896E-018));
#469=VECTOR('',#542,1.0);
#470=CARTESIAN_POINT('',(0.00275000000000192,-0.107500000000001,0.11225));
#471=CARTESIAN_POINT('',(0.00275000000000192,-0.104963981917608,0.11225));
#472=CARTESIAN_POINT('',(0.00275000000000192,-0.107500000000001,0.11225));
#473=VECTOR('',#543,1.0);
#474=AXIS2_PLACEMENT_3D('',#544,#545,#546);
#475=CARTESIAN_POINT('',(0.00275000000000192,-0.104963981917608,0.11225));
#476=CARTESIAN_POINT('',(0.00275000000000192,-0.104963981917608,0.112431669752137));
#477=CARTESIAN_POINT('',(0.00273217480185802,-0.10496445322636,0.112610302403375));
#478=CARTESIAN_POINT('',(0.00266233351065367,-0.104966247911101,0.112961742402724));
#479=CARTESIAN_POINT('',(0.00260946996253519,-0.104967592289251,0.113136369590663));
#480=CARTESIAN_POINT('',(0.0024714598371175,-0.104970932408745,0.113469373121788));
#481=CARTESIAN_POINT('',(0.00238700662475021,-0.104972911537788,0.113627312093293));
#482=CARTESIAN_POINT('',(0.00218748096801189,-0.104977258891445,0.113926220821824));
#483=CARTESIAN_POINT('',(0.00207134949123577,-0.104979643765748,0.114067742257087));
#484=CARTESIAN_POINT('',(0.00181766954525074,-0.10498434250555,0.114321413298284));
#485=CARTESIAN_POINT('',(0.00167925100604099,-0.104986678696118,0.114435246746176));
#486=CARTESIAN_POINT('',(0.00137869955430917,-0.104991055691055,0.114636288922555));
#487=CARTESIAN_POINT('',(0.00121866103622712,-0.104993058029301,0.114721727298954));
#488=CARTESIAN_POINT('',(0.00088780571123298,-0.104996376937894,0.114858902370867));
#489=CARTESIAN_POINT('',(0.000714555372954321,-0.104997718582306,0.114911701649734));
#490=CARTESIAN_POINT('',(0.000359612864749461,-0.104999534167812,0.114982384241047));
#491=CARTESIAN_POINT('',(0.000181197970553317,-0.104999996798897,0.114999877776039));
#492=CARTESIAN_POINT('',(-0.000177468854792304,-0.105000003167993,0.115000120959751));
#493=CARTESIAN_POINT('',(-0.000359621388668766,-0.1049995322382,0.114982306219));
#494=CARTESIAN_POINT('',(-0.00071230806997017,-0.104997731951683,0.114912225015101));
#495=CARTESIAN_POINT('',(-0.000883727633454248,-0.104996412987377,0.114860358021501));
#496=CARTESIAN_POINT('',(-0.0012166659072143,-0.104993082814137,0.114722785393189));
#497=CARTESIAN_POINT('',(-0.00137773332170751,-0.104991066594097,0.114636724848525));
#498=CARTESIAN_POINT('',(-0.00167578684234824,-0.104986732267134,0.114437771255712));
#499=CARTESIAN_POINT('',(-0.0018147060721528,-0.104984395692059,0.114324192958694));
#500=CARTESIAN_POINT('',(-0.00207154302800224,-0.104979641866594,0.114067730464436));
#501=CARTESIAN_POINT('',(-0.00218561138970023,-0.104977297715098,0.113928596672629));
#502=CARTESIAN_POINT('',(-0.00238489015106517,-0.104972959526149,0.11363089930969));
#503=CARTESIAN_POINT('',(-0.00247101796130667,-0.104970942877509,0.113470286210829));
#504=CARTESIAN_POINT('',(-0.00260922884272965,-0.104967598349227,0.113137103741231));
#505=CARTESIAN_POINT('',(-0.00266129898940114,-0.104966274253277,0.112965716364219));
#506=CARTESIAN_POINT('',(-0.00273178601952092,-0.104964463453441,0.112613465773559));
#507=CARTESIAN_POINT('',(-0.0027499999999981,-0.104963981917608,0.112431669716273));
#508=CARTESIAN_POINT('',(-0.00274999999999809,-0.104963981917608,0.11225));
#509=CARTESIAN_POINT('',(0.0,0.1205,0.12));
#510=AXIS2_PLACEMENT_3D('',#547,#548,#549);
#511=CARTESIAN_POINT('',(0.0,0.1225,0.118));
#512=AXIS2_PLACEMENT_3D('',#550,#551,#552);
#513=CARTESIAN_POINT('',(0.0,0.1225,0.112));
#514=AXIS2_PLACEMENT_3D('',#553,#554,#555);
#515=CARTESIAN_POINT('',(0.0,0.1205,0.11));
#516=AXIS2_PLACEMENT_3D('',#556,#557,#558);
#517=CARTESIAN_POINT('',(0.0,0.115,0.11));
#518=AXIS2_PLACEMENT_3D('',#559,#560,#561);
#519=CARTESIAN_POINT('',(0.0,0.115,0.002));
#520=AXIS2_PLACEMENT_3D('',#562,#563,#564);
#521=CARTESIAN_POINT('',(0.0,0.113,-6.91925441518255E-018));
#522=AXIS2_PLACEMENT_3D('',#565,#566,#567);
#523=CARTESIAN_POINT('',(0.0,0.107,-6.55186037543834E-018));
#524=AXIS2_PLACEMENT_3D('',#568,#569,#570);
#525=CARTESIAN_POINT('',(0.0,0.105,0.002));
#526=AXIS2_PLACEMENT_3D('',#571,#572,#573);
#527=CARTESIAN_POINT('',(0.0,0.105,0.118));
#528=AXIS2_PLACEMENT_3D('',#574,#575,#576);
#529=CARTESIAN_POINT('',(0.0,0.107,0.12));
#530=AXIS2_PLACEMENT_3D('',#577,#578,#579);
#531=CARTESIAN_POINT('',(0.00275000000000192,-0.104963981917608,6.42719022405798E-018));
#532=VECTOR('',#580,1.0);
#533=CARTESIAN_POINT('',(0.00275000000000192,-0.107500000000001,0.00775));
#534=VECTOR('',#581,1.0);
#535=DIRECTION('',(0.0,1.0,0.0));
#536=CARTESIAN_POINT('',(1.91643576008538E-015,-0.107500000000001,0.00775));
#537=DIRECTION('',(0.0,-1.0,0.0));
#538=DIRECTION('',(0.0,0.0,-1.0));
#539=DIRECTION('',(0.0,1.0,0.0));
#540=DIRECTION('',(0.0,1.0,0.0));
#541=DIRECTION('',(1.20351628716094E-016,0.0,-1.0));
#542=DIRECTION('',(0.0,-6.12323399573677E-017,-1.0));
#543=DIRECTION('',(0.0,1.0,0.0));
#544=CARTESIAN_POINT('',(1.91014738748496E-015,-0.107500000000001,0.11225));
#545=DIRECTION('',(0.0,-1.0,0.0));
#546=DIRECTION('',(0.0,0.0,-1.0));
#547=CARTESIAN_POINT('',(0.0,6.93889390390723E-018,0.12));
#548=DIRECTION('',(0.0,-6.12323399573677E-017,-1.0));
#549=DIRECTION('',(0.0,1.0,-6.12323399573677E-017));
#550=CARTESIAN_POINT('',(0.0,6.93889390390723E-018,0.118));
#551=DIRECTION('',(0.0,-6.12323399573677E-017,-1.0));
#552=DIRECTION('',(0.0,1.0,-6.12323399573677E-017));
#553=CARTESIAN_POINT('',(0.0,6.93889390390723E-018,0.112));
#554=DIRECTION('',(0.0,-6.12323399573677E-017,-1.0));
#555=DIRECTION('',(0.0,1.0,-6.12323399573677E-017));
#556=CARTESIAN_POINT('',(0.0,6.93889390390723E-018,0.11));
#557=DIRECTION('',(0.0,-6.12323399573677E-017,-1.0));
#558=DIRECTION('',(0.0,1.0,-6.12323399573677E-017));
#559=CARTESIAN_POINT('',(0.0,6.93889390390723E-018,0.11));
#560=DIRECTION('',(0.0,-6.12323399573677E-017,-1.0));
#561=DIRECTION('',(0.0,1.0,-6.12323399573677E-017));
#562=CARTESIAN_POINT('',(0.0,0.0,0.002));
#563=DIRECTION('',(0.0,-6.12323399573677E-017,-1.0));
#564=DIRECTION('',(0.0,1.0,-6.12323399573677E-017));
#565=CARTESIAN_POINT('',(0.0,0.0,0.0));
#566=DIRECTION('',(0.0,-6.12323399573677E-017,-1.0));
#567=DIRECTION('',(0.0,1.0,-6.12323399573677E-017));
#568=CARTESIAN_POINT('',(0.0,0.0,0.0));
#569=DIRECTION('',(0.0,-6.12323399573677E-017,-1.0));
#570=DIRECTION('',(0.0,1.0,-6.12323399573677E-017));
#571=CARTESIAN_POINT('',(0.0,0.0,0.002));
#572=DIRECTION('',(0.0,-6.12323399573677E-017,-1.0));
#573=DIRECTION('',(0.0,1.0,-6.12323399573677E-017));
#574=CARTESIAN_POINT('',(0.0,6.93889390390723E-018,0.118));
#575=DIRECTION('',(0.0,-6.12323399573677E-017,-1.0));
#576=DIRECTION('',(0.0,1.0,-6.12323399573677E-017));
#577=CARTESIAN_POINT('',(0.0,6.93889390390723E-018,0.12));
#578=DIRECTION('',(0.0,-6.12323399573677E-017,-1.0));
#579=DIRECTION('',(0.0,1.0,-6.12323399573677E-017));
#580=DIRECTION('',(0.0,-6.12323399573677E-017,-1.0));
#581=DIRECTION('',(0.0,0.0,1.0));
ENDSEC;
END-ISO-10303-21;
