ISO-10303-21;
HEADER;
FILE_DESCRIPTION(('STEP AP203'),'1');
FILE_NAME('590-LMF20080.stp','2018-04-20T12:59:04',(' '),(' '),'Spatial InterOp 3D',' ',' ');
FILE_SCHEMA(('CONFIG_CONTROL_DESIGN'));
ENDSEC;
DATA;
#1=DESIGN_CONTEXT('',#51,'design');
#2=APPLICATION_PROTOCOL_DEFINITION('INTERNATIONAL STANDARD','config_control_design',1994,#51);
#3=PRODUCT_CATEGORY_RELATIONSHIP('NONE','NONE',#52,#53);
#4=DATE_AND_TIME(#54,#55);
#5=DATE_TIME_ROLE('creation_date');
#6=DATE_TIME_ROLE('classification_date');
#7=PERSON_AND_ORGANIZATION_ROLE('creator');
#8=PERSON_AND_ORGANIZATION_ROLE('design_supplier');
#9=PERSON_AND_ORGANIZATION_ROLE('classification_officer');
#10=PERSON_AND_ORGANIZATION_ROLE('design_owner');
#11=APPROVAL_PERSON_ORGANIZATION(#56,#57,#58);
#12=APPROVAL_DATE_TIME(#4,#57);
#13=CC_DESIGN_APPROVAL(#57,(#59,#60,#61));
#14=CC_DESIGN_DATE_AND_TIME_ASSIGNMENT(#4,#5,(#61));
#15=CC_DESIGN_DATE_AND_TIME_ASSIGNMENT(#4,#6,(#59));
#16=CC_DESIGN_PERSON_AND_ORGANIZATION_ASSIGNMENT(#56,#10,(#62));
#17=CC_DESIGN_PERSON_AND_ORGANIZATION_ASSIGNMENT(#56,#7,(#61));
#18=CC_DESIGN_PERSON_AND_ORGANIZATION_ASSIGNMENT(#56,#7,(#60));
#19=CC_DESIGN_PERSON_AND_ORGANIZATION_ASSIGNMENT(#56,#8,(#60));
#20=CC_DESIGN_SECURITY_CLASSIFICATION(#59,(#60));
#21=CC_DESIGN_PERSON_AND_ORGANIZATION_ASSIGNMENT(#56,#9,(#59));
#22=SHAPE_DEFINITION_REPRESENTATION(#63,#64);
#23=DESIGN_CONTEXT('',#65,'design');
#24=APPLICATION_PROTOCOL_DEFINITION('INTERNATIONAL STANDARD','config_control_design',1994,#65);
#25=PRODUCT_CATEGORY_RELATIONSHIP('NONE','NONE',#66,#67);
#26=DATE_AND_TIME(#68,#69);
#27=DATE_TIME_ROLE('creation_date');
#28=DATE_TIME_ROLE('classification_date');
#29=PERSON_AND_ORGANIZATION_ROLE('creator');
#30=PERSON_AND_ORGANIZATION_ROLE('design_supplier');
#31=PERSON_AND_ORGANIZATION_ROLE('classification_officer');
#32=PERSON_AND_ORGANIZATION_ROLE('design_owner');
#33=APPROVAL_PERSON_ORGANIZATION(#70,#71,#72);
#34=APPROVAL_DATE_TIME(#26,#71);
#35=CC_DESIGN_APPROVAL(#71,(#73,#74,#75));
#36=CC_DESIGN_DATE_AND_TIME_ASSIGNMENT(#26,#27,(#75));
#37=CC_DESIGN_DATE_AND_TIME_ASSIGNMENT(#26,#28,(#73));
#38=CC_DESIGN_PERSON_AND_ORGANIZATION_ASSIGNMENT(#70,#32,(#76));
#39=CC_DESIGN_PERSON_AND_ORGANIZATION_ASSIGNMENT(#70,#29,(#75));
#40=CC_DESIGN_PERSON_AND_ORGANIZATION_ASSIGNMENT(#70,#29,(#74));
#41=CC_DESIGN_PERSON_AND_ORGANIZATION_ASSIGNMENT(#70,#30,(#74));
#42=CC_DESIGN_SECURITY_CLASSIFICATION(#73,(#74));
#43=CC_DESIGN_PERSON_AND_ORGANIZATION_ASSIGNMENT(#70,#31,(#73));
#44=CONTEXT_DEPENDENT_SHAPE_REPRESENTATION(#77,#78);
#45=SHAPE_DEFINITION_REPRESENTATION(#79,#80);
#46=SHAPE_REPRESENTATION_RELATIONSHIP('NONE','NONE',#80,#81);
#47= (GEOMETRIC_REPRESENTATION_CONTEXT(3)GLOBAL_UNCERTAINTY_ASSIGNED_CONTEXT((#84))GLOBAL_UNIT_ASSIGNED_CONTEXT((#86,#87,#88))REPRESENTATION_CONTEXT('NONE','WORKSPACE'));
#51=APPLICATION_CONTEXT('CONFIGURATION CONTROLLED 3D DESIGNS OF MECHANICAL PARTS AND ASSEMBLIES');
#52=PRODUCT_CATEGORY('part','NONE');
#53=PRODUCT_RELATED_PRODUCT_CATEGORY('detail',' ',(#62));
#54=CALENDAR_DATE(2018,20,3);
#55=LOCAL_TIME(14,59,4.0,#90);
#56=PERSON_AND_ORGANIZATION(#91,#92);
#57=APPROVAL(#93,'SOLID MODEL');
#58=APPROVAL_ROLE('APPROVED');
#59=SECURITY_CLASSIFICATION('','',#94);
#60=PRODUCT_DEFINITION_FORMATION_WITH_SPECIFIED_SOURCE(' ','NONE',#62,.NOT_KNOWN.);
#61=PRODUCT_DEFINITION('NONE','NONE',#60,#1);
#62=PRODUCT('','','PART--DESC',(#95));
#63=PRODUCT_DEFINITION_SHAPE('NONE','NONE',#61);
#64=SHAPE_REPRESENTATION('',(#96,#97),#98);
#65=APPLICATION_CONTEXT('CONFIGURATION CONTROLLED 3D DESIGNS OF MECHANICAL PARTS AND ASSEMBLIES');
#66=PRODUCT_CATEGORY('part','NONE');
#67=PRODUCT_RELATED_PRODUCT_CATEGORY('detail',' ',(#76));
#68=CALENDAR_DATE(2018,20,3);
#69=LOCAL_TIME(14,59,4.0,#99);
#70=PERSON_AND_ORGANIZATION(#100,#101);
#71=APPROVAL(#102,'SOLID MODEL');
#72=APPROVAL_ROLE('APPROVED');
#73=SECURITY_CLASSIFICATION('','',#103);
#74=PRODUCT_DEFINITION_FORMATION_WITH_SPECIFIED_SOURCE(' ','NONE',#76,.NOT_KNOWN.);
#75=PRODUCT_DEFINITION('590-LMF200x80','590-LMF200x80',#74,#23);
#76=PRODUCT('590-LMF200x80','590-LMF200x80','PART-590-LMF200x80-DESC',(#104));
#77=(REPRESENTATION_RELATIONSHIP('','',#80,#64)REPRESENTATION_RELATIONSHIP_WITH_TRANSFORMATION(#107)SHAPE_REPRESENTATION_RELATIONSHIP());
#78=PRODUCT_DEFINITION_SHAPE('NAUO-PROD-DEF','NAUO-PROD-DEF',#109);
#79=PRODUCT_DEFINITION_SHAPE('NONE','NONE',#75);
#80=SHAPE_REPRESENTATION('590-LMF200x80',(#96),#98);
#81=ADVANCED_BREP_SHAPE_REPRESENTATION('',(#110),#47);
#84=UNCERTAINTY_MEASURE_WITH_UNIT(LENGTH_MEASURE(1.0E-006),#86,'','');
#86= (CONVERSION_BASED_UNIT('METRE',#113)LENGTH_UNIT()NAMED_UNIT(#116));
#87= (NAMED_UNIT(#118)PLANE_ANGLE_UNIT()SI_UNIT($,.RADIAN.));
#88= (NAMED_UNIT(#118)SOLID_ANGLE_UNIT()SI_UNIT($,.STERADIAN.));
#90=COORDINATED_UNIVERSAL_TIME_OFFSET(1,0,.AHEAD.);
#91=PERSON('','UNSPECIFIED',$,$,$,$);
#92=ORGANIZATION('UNSPECIFIED','UNSPECIFIED','UNSPECIFIED');
#93=APPROVAL_STATUS('approved');
#94=SECURITY_CLASSIFICATION_LEVEL('unclassified');
#95=MECHANICAL_CONTEXT('',#51,'mechanical');
#96=AXIS2_PLACEMENT_3D('',#124,#125,#126);
#97=AXIS2_PLACEMENT_3D('',#127,#128,#129);
#98= (GEOMETRIC_REPRESENTATION_CONTEXT(3)GLOBAL_UNCERTAINTY_ASSIGNED_CONTEXT((#132))GLOBAL_UNIT_ASSIGNED_CONTEXT((#134,#135,#136))REPRESENTATION_CONTEXT('NONE','WORKSPACE'));
#99=COORDINATED_UNIVERSAL_TIME_OFFSET(1,0,.AHEAD.);
#100=PERSON('','UNSPECIFIED',$,$,$,$);
#101=ORGANIZATION('UNSPECIFIED','UNSPECIFIED','UNSPECIFIED');
#102=APPROVAL_STATUS('approved');
#103=SECURITY_CLASSIFICATION_LEVEL('unclassified');
#104=MECHANICAL_CONTEXT('',#65,'mechanical');
#107=ITEM_DEFINED_TRANSFORMATION('','',#96,#97);
#109=NEXT_ASSEMBLY_USAGE_OCCURRENCE('590-LMF200x80','590-LMF200x80','590-LMF200x80',#61,#75,$);
#110=MANIFOLD_SOLID_BREP('',#138);
#113=LENGTH_MEASURE_WITH_UNIT(LENGTH_MEASURE(1.0),#139);
#116=DIMENSIONAL_EXPONENTS(1.0,0.0,0.0,0.0,0.0,0.0,0.0);
#118=DIMENSIONAL_EXPONENTS(0.0,0.0,0.0,0.0,0.0,0.0,0.0);
#124=CARTESIAN_POINT('',(0.0,0.0,0.0));
#125=DIRECTION('',(0.0,0.0,1.0));
#126=DIRECTION('',(1.0,0.0,0.0));
#127=CARTESIAN_POINT('',(0.0,0.0,0.0));
#128=DIRECTION('',(5.48707263966374E-016,-5.48707263966374E-016,1.0));
#129=DIRECTION('',(-1.60812264967663E-016,1.0,5.48707263966374E-016));
#132=UNCERTAINTY_MEASURE_WITH_UNIT(LENGTH_MEASURE(1.0E-006),#134,'','');
#134= (CONVERSION_BASED_UNIT('METRE',#142)LENGTH_UNIT()NAMED_UNIT(#145));
#135= (NAMED_UNIT(#147)PLANE_ANGLE_UNIT()SI_UNIT($,.RADIAN.));
#136= (NAMED_UNIT(#147)SOLID_ANGLE_UNIT()SI_UNIT($,.STERADIAN.));
#138=CLOSED_SHELL('',(#153,#154,#155,#156,#157,#158,#159,#160,#161,#162,#163,#164,#165,#166,#167,#168));
#139= (NAMED_UNIT(#116)LENGTH_UNIT()SI_UNIT($,.METRE.));
#142=LENGTH_MEASURE_WITH_UNIT(LENGTH_MEASURE(1.0),#170);
#145=DIMENSIONAL_EXPONENTS(1.0,0.0,0.0,0.0,0.0,0.0,0.0);
#147=DIMENSIONAL_EXPONENTS(0.0,0.0,0.0,0.0,0.0,0.0,0.0);
#153=ADVANCED_FACE('',(#171),#172,.F.);
#154=ADVANCED_FACE('',(#173),#174,.T.);
#155=ADVANCED_FACE('',(#175),#176,.F.);
#156=ADVANCED_FACE('',(#177,#178),#179,.T.);
#157=ADVANCED_FACE('',(#180,#181),#182,.T.);
#158=ADVANCED_FACE('',(#183,#184),#185,.T.);
#159=ADVANCED_FACE('',(#186,#187),#188,.T.);
#160=ADVANCED_FACE('',(#189,#190),#191,.T.);
#161=ADVANCED_FACE('',(#192,#193),#194,.T.);
#162=ADVANCED_FACE('',(#195,#196),#197,.T.);
#163=ADVANCED_FACE('',(#198,#199),#200,.F.);
#164=ADVANCED_FACE('',(#201,#202),#203,.F.);
#165=ADVANCED_FACE('',(#204,#205,#206),#207,.F.);
#166=ADVANCED_FACE('',(#208,#209),#210,.T.);
#167=ADVANCED_FACE('',(#211),#212,.F.);
#168=ADVANCED_FACE('',(#213),#214,.T.);
#170= (NAMED_UNIT(#145)LENGTH_UNIT()SI_UNIT($,.METRE.));
#171=FACE_OUTER_BOUND('',#216,.T.);
#172=CYLINDRICAL_SURFACE('',#217,0.00275);
#173=FACE_OUTER_BOUND('',#218,.T.);
#174=PLANE('',#219);
#175=FACE_OUTER_BOUND('',#220,.T.);
#176=CYLINDRICAL_SURFACE('',#221,0.00275);
#177=FACE_BOUND('',#222,.T.);
#178=FACE_OUTER_BOUND('',#223,.T.);
#179=CONICAL_SURFACE('',#224,0.1175,0.785398163397459);
#180=FACE_OUTER_BOUND('',#225,.T.);
#181=FACE_OUTER_BOUND('',#226,.T.);
#182=CYLINDRICAL_SURFACE('',#227,0.1175);
#183=FACE_OUTER_BOUND('',#228,.T.);
#184=FACE_BOUND('',#229,.T.);
#185=CONICAL_SURFACE('',#230,0.1155,0.785398163397442);
#186=FACE_OUTER_BOUND('',#231,.T.);
#187=FACE_BOUND('',#232,.T.);
#188=PLANE('',#233);
#189=FACE_OUTER_BOUND('',#234,.T.);
#190=FACE_OUTER_BOUND('',#235,.T.);
#191=CYLINDRICAL_SURFACE('',#236,0.11);
#192=FACE_OUTER_BOUND('',#237,.T.);
#193=FACE_BOUND('',#238,.T.);
#194=CONICAL_SURFACE('',#239,0.108,0.785398163397449);
#195=FACE_OUTER_BOUND('',#240,.T.);
#196=FACE_BOUND('',#241,.T.);
#197=PLANE('',#242);
#198=FACE_OUTER_BOUND('',#243,.T.);
#199=FACE_BOUND('',#244,.T.);
#200=CONICAL_SURFACE('',#245,0.1,0.785398163397448);
#201=FACE_BOUND('',#246,.T.);
#202=FACE_OUTER_BOUND('',#247,.T.);
#203=CONICAL_SURFACE('',#248,0.102,0.785398163397452);
#204=FACE_OUTER_BOUND('',#249,.T.);
#205=FACE_OUTER_BOUND('',#250,.T.);
#206=FACE_BOUND('',#251,.T.);
#207=CYLINDRICAL_SURFACE('',#252,0.1);
#208=FACE_BOUND('',#253,.T.);
#209=FACE_OUTER_BOUND('',#254,.T.);
#210=PLANE('',#255);
#211=FACE_OUTER_BOUND('',#256,.T.);
#212=PLANE('',#257);
#213=FACE_OUTER_BOUND('',#258,.T.);
#214=PLANE('',#259);
#216=EDGE_LOOP('',(#260,#261,#262,#263));
#217=AXIS2_PLACEMENT_3D('',#264,#265,#266);
#218=EDGE_LOOP('',(#267,#268,#269,#270));
#219=AXIS2_PLACEMENT_3D('',#271,#272,#273);
#220=EDGE_LOOP('',(#274,#275,#276,#277));
#221=AXIS2_PLACEMENT_3D('',#278,#279,#280);
#222=EDGE_LOOP('',(#281));
#223=EDGE_LOOP('',(#282));
#224=AXIS2_PLACEMENT_3D('',#283,#284,#285);
#225=EDGE_LOOP('',(#286));
#226=EDGE_LOOP('',(#287));
#227=AXIS2_PLACEMENT_3D('',#288,#289,#290);
#228=EDGE_LOOP('',(#291));
#229=EDGE_LOOP('',(#292));
#230=AXIS2_PLACEMENT_3D('',#293,#294,#295);
#231=EDGE_LOOP('',(#296));
#232=EDGE_LOOP('',(#297));
#233=AXIS2_PLACEMENT_3D('',#298,#299,#300);
#234=EDGE_LOOP('',(#301));
#235=EDGE_LOOP('',(#302));
#236=AXIS2_PLACEMENT_3D('',#303,#304,#305);
#237=EDGE_LOOP('',(#306));
#238=EDGE_LOOP('',(#307));
#239=AXIS2_PLACEMENT_3D('',#308,#309,#310);
#240=EDGE_LOOP('',(#311));
#241=EDGE_LOOP('',(#312));
#242=AXIS2_PLACEMENT_3D('',#313,#314,#315);
#243=EDGE_LOOP('',(#316));
#244=EDGE_LOOP('',(#317));
#245=AXIS2_PLACEMENT_3D('',#318,#319,#320);
#246=EDGE_LOOP('',(#321));
#247=EDGE_LOOP('',(#322));
#248=AXIS2_PLACEMENT_3D('',#323,#324,#325);
#249=EDGE_LOOP('',(#326));
#250=EDGE_LOOP('',(#327));
#251=EDGE_LOOP('',(#328,#329,#330,#331));
#252=AXIS2_PLACEMENT_3D('',#332,#333,#334);
#253=EDGE_LOOP('',(#335));
#254=EDGE_LOOP('',(#336));
#255=AXIS2_PLACEMENT_3D('',#337,#338,#339);
#256=EDGE_LOOP('',(#340,#341,#342,#343));
#257=AXIS2_PLACEMENT_3D('',#344,#345,#346);
#258=EDGE_LOOP('',(#347,#348,#349,#350));
#259=AXIS2_PLACEMENT_3D('',#351,#352,#353);
#260=ORIENTED_EDGE('',*,*,#354,.F.);
#261=ORIENTED_EDGE('',*,*,#355,.T.);
#262=ORIENTED_EDGE('',*,*,#356,.T.);
#263=ORIENTED_EDGE('',*,*,#357,.F.);
#264=CARTESIAN_POINT('',(2.12937306676153E-015,-0.1025,0.00775));
#265=DIRECTION('',(0.0,1.0,0.0));
#266=DIRECTION('',(0.0,0.0,1.0));
#267=ORIENTED_EDGE('',*,*,#358,.F.);
#268=ORIENTED_EDGE('',*,*,#359,.T.);
#269=ORIENTED_EDGE('',*,*,#354,.T.);
#270=ORIENTED_EDGE('',*,*,#360,.F.);
#271=CARTESIAN_POINT('',(-0.00274999999999788,-0.1025,0.07225));
#272=DIRECTION('',(1.0,0.0,1.21027219254196E-016));
#273=DIRECTION('',(-1.21027219254196E-016,0.0,1.0));
#274=ORIENTED_EDGE('',*,*,#361,.F.);
#275=ORIENTED_EDGE('',*,*,#362,.T.);
#276=ORIENTED_EDGE('',*,*,#358,.T.);
#277=ORIENTED_EDGE('',*,*,#363,.F.);
#278=CARTESIAN_POINT('',(2.12546993894058E-015,-0.1025,0.07225));
#279=DIRECTION('',(0.0,1.0,0.0));
#280=DIRECTION('',(0.0,0.0,1.0));
#281=ORIENTED_EDGE('',*,*,#364,.T.);
#282=ORIENTED_EDGE('',*,*,#365,.F.);
#283=CARTESIAN_POINT('',(0.0,6.93889390390723E-018,0.078));
#284=DIRECTION('',(0.0,-6.12323399573677E-017,-1.0));
#285=DIRECTION('',(0.0,1.0,-6.12323399573677E-017));
#286=ORIENTED_EDGE('',*,*,#365,.T.);
#287=ORIENTED_EDGE('',*,*,#366,.F.);
#288=CARTESIAN_POINT('',(0.0,0.0,0.0));
#289=DIRECTION('',(0.0,-6.12323399573677E-017,-1.0));
#290=DIRECTION('',(0.0,1.0,-6.12323399573677E-017));
#291=ORIENTED_EDGE('',*,*,#366,.T.);
#292=ORIENTED_EDGE('',*,*,#367,.F.);
#293=CARTESIAN_POINT('',(0.0,6.93889390390723E-018,0.07));
#294=DIRECTION('',(-0.0,6.12323399573677E-017,1.0));
#295=DIRECTION('',(0.0,-1.0,6.12323399573677E-017));
#296=ORIENTED_EDGE('',*,*,#367,.T.);
#297=ORIENTED_EDGE('',*,*,#368,.F.);
#298=CARTESIAN_POINT('',(0.11,6.93889390390723E-018,0.07));
#299=DIRECTION('',(0.0,-6.12323399573677E-017,-1.0));
#300=DIRECTION('',(0.0,1.0,-6.12323399573677E-017));
#301=ORIENTED_EDGE('',*,*,#368,.T.);
#302=ORIENTED_EDGE('',*,*,#369,.F.);
#303=CARTESIAN_POINT('',(0.0,0.0,0.0));
#304=DIRECTION('',(0.0,-6.12323399573677E-017,-1.0));
#305=DIRECTION('',(0.0,1.0,-6.12323399573677E-017));
#306=ORIENTED_EDGE('',*,*,#369,.T.);
#307=ORIENTED_EDGE('',*,*,#370,.F.);
#308=CARTESIAN_POINT('',(0.0,0.0,0.0));
#309=DIRECTION('',(-0.0,6.12323399573677E-017,1.0));
#310=DIRECTION('',(0.0,-1.0,6.12323399573677E-017));
#311=ORIENTED_EDGE('',*,*,#370,.T.);
#312=ORIENTED_EDGE('',*,*,#371,.F.);
#313=CARTESIAN_POINT('',(0.102,0.0,0.0));
#314=DIRECTION('',(0.0,-6.12323399573677E-017,-1.0));
#315=DIRECTION('',(0.0,1.0,-6.12323399573677E-017));
#316=ORIENTED_EDGE('',*,*,#371,.T.);
#317=ORIENTED_EDGE('',*,*,#372,.F.);
#318=CARTESIAN_POINT('',(0.0,0.0,0.002));
#319=DIRECTION('',(0.0,-6.12323399573677E-017,-1.0));
#320=DIRECTION('',(0.0,1.0,-6.12323399573677E-017));
#321=ORIENTED_EDGE('',*,*,#373,.T.);
#322=ORIENTED_EDGE('',*,*,#374,.F.);
#323=CARTESIAN_POINT('',(0.0,6.93889390390723E-018,0.08));
#324=DIRECTION('',(-0.0,6.12323399573677E-017,1.0));
#325=DIRECTION('',(0.0,-1.0,6.12323399573677E-017));
#326=ORIENTED_EDGE('',*,*,#372,.T.);
#327=ORIENTED_EDGE('',*,*,#373,.F.);
#328=ORIENTED_EDGE('',*,*,#375,.T.);
#329=ORIENTED_EDGE('',*,*,#363,.T.);
#330=ORIENTED_EDGE('',*,*,#360,.T.);
#331=ORIENTED_EDGE('',*,*,#357,.T.);
#332=CARTESIAN_POINT('',(0.0,0.0,0.0));
#333=DIRECTION('',(0.0,-6.12323399573677E-017,-1.0));
#334=DIRECTION('',(0.0,1.0,-6.12323399573677E-017));
#335=ORIENTED_EDGE('',*,*,#374,.T.);
#336=ORIENTED_EDGE('',*,*,#364,.F.);
#337=CARTESIAN_POINT('',(0.1155,6.93889390390723E-018,0.08));
#338=DIRECTION('',(0.0,6.12323399573677E-017,1.0));
#339=DIRECTION('',(0.0,-1.0,6.12323399573677E-017));
#340=ORIENTED_EDGE('',*,*,#362,.F.);
#341=ORIENTED_EDGE('',*,*,#376,.F.);
#342=ORIENTED_EDGE('',*,*,#355,.F.);
#343=ORIENTED_EDGE('',*,*,#359,.F.);
#344=CARTESIAN_POINT('',(2.12546993894058E-015,-0.1025,0.07225));
#345=DIRECTION('',(0.0,-1.0,0.0));
#346=DIRECTION('',(0.0,0.0,-1.0));
#347=ORIENTED_EDGE('',*,*,#356,.F.);
#348=ORIENTED_EDGE('',*,*,#376,.T.);
#349=ORIENTED_EDGE('',*,*,#361,.T.);
#350=ORIENTED_EDGE('',*,*,#375,.F.);
#351=CARTESIAN_POINT('',(0.00275000000000213,-0.1025,0.00775));
#352=DIRECTION('',(-1.0,0.0,0.0));
#353=DIRECTION('',(0.0,1.0,0.0));
#354=EDGE_CURVE('',#377,#378,#379,.T.);
#355=EDGE_CURVE('',#377,#380,#381,.T.);
#356=EDGE_CURVE('',#380,#382,#383,.T.);
#357=EDGE_CURVE('',#378,#382,#384,.T.);
#358=EDGE_CURVE('',#385,#386,#387,.T.);
#359=EDGE_CURVE('',#385,#377,#388,.T.);
#360=EDGE_CURVE('',#386,#378,#389,.T.);
#361=EDGE_CURVE('',#390,#391,#392,.T.);
#362=EDGE_CURVE('',#390,#385,#393,.T.);
#363=EDGE_CURVE('',#391,#386,#394,.T.);
#364=EDGE_CURVE('',#395,#395,#396,.T.);
#365=EDGE_CURVE('',#397,#397,#398,.T.);
#366=EDGE_CURVE('',#399,#399,#400,.T.);
#367=EDGE_CURVE('',#401,#401,#402,.T.);
#368=EDGE_CURVE('',#403,#403,#404,.T.);
#369=EDGE_CURVE('',#405,#405,#406,.T.);
#370=EDGE_CURVE('',#407,#407,#408,.T.);
#371=EDGE_CURVE('',#409,#409,#410,.T.);
#372=EDGE_CURVE('',#411,#411,#412,.T.);
#373=EDGE_CURVE('',#413,#413,#414,.T.);
#374=EDGE_CURVE('',#415,#415,#416,.T.);
#375=EDGE_CURVE('',#382,#391,#417,.F.);
#376=EDGE_CURVE('',#380,#390,#418,.T.);
#377=VERTEX_POINT('',#419);
#378=VERTEX_POINT('',#420);
#379=LINE('',#421,#422);
#380=VERTEX_POINT('',#423);
#381=CIRCLE('',#424,0.00275);
#382=VERTEX_POINT('',#425);
#383=LINE('',#426,#427);
#384=B_SPLINE_CURVE_WITH_KNOTS('',3,(#428,#429,#430,#431,#432,#433,#434,#435,#436,#437,#438,#439,#440,#441,#442,#443,#444,#445,#446,#447,#448,#449,#450,#451,#452,#453,#454,#455,#456,#457,#458,#459,#460,#461),.UNSPECIFIED.,.F.,.F.,(4,2,2,2,2,2,2,2,2,2,2,2,2,2,2,2,4),(0.0,0.000537274152499315,0.00107454830499863,0.00161182245749795,0.00214909660999726,0.00268637076249658,0.00322364491499589,0.00376091906749521,0.00429819321999452,0.00483546737249384,0.00537274152499315,0.00591001567749247,0.00644728982999178,0.0069845639824911,0.00752183813499041,0.00805911228748973,0.00859638643998904),.UNSPECIFIED.);
#385=VERTEX_POINT('',#462);
#386=VERTEX_POINT('',#463);
#387=LINE('',#464,#465);
#388=LINE('',#466,#467);
#389=LINE('',#468,#469);
#390=VERTEX_POINT('',#470);
#391=VERTEX_POINT('',#471);
#392=LINE('',#472,#473);
#393=CIRCLE('',#474,0.00275);
#394=B_SPLINE_CURVE_WITH_KNOTS('',3,(#475,#476,#477,#478,#479,#480,#481,#482,#483,#484,#485,#486,#487,#488,#489,#490,#491,#492,#493,#494,#495,#496,#497,#498,#499,#500,#501,#502,#503,#504,#505,#506,#507,#508),.UNSPECIFIED.,.F.,.F.,(4,2,2,2,2,2,2,2,2,2,2,2,2,2,2,2,4),(0.0,0.000537274152499315,0.00107454830499863,0.00161182245749794,0.00214909660999726,0.00268637076249658,0.00322364491499589,0.0037609190674952,0.00429819321999452,0.00483546737249383,0.00537274152499315,0.00591001567749246,0.00644728982999178,0.00698456398249109,0.00752183813499041,0.00805911228748973,0.00859638643998904),.UNSPECIFIED.);
#395=VERTEX_POINT('',#509);
#396=CIRCLE('',#510,0.1155);
#397=VERTEX_POINT('',#511);
#398=CIRCLE('',#512,0.1175);
#399=VERTEX_POINT('',#513);
#400=CIRCLE('',#514,0.1175);
#401=VERTEX_POINT('',#515);
#402=CIRCLE('',#516,0.1155);
#403=VERTEX_POINT('',#517);
#404=CIRCLE('',#518,0.11);
#405=VERTEX_POINT('',#519);
#406=CIRCLE('',#520,0.11);
#407=VERTEX_POINT('',#521);
#408=CIRCLE('',#522,0.108);
#409=VERTEX_POINT('',#523);
#410=CIRCLE('',#524,0.102);
#411=VERTEX_POINT('',#525);
#412=CIRCLE('',#526,0.1);
#413=VERTEX_POINT('',#527);
#414=CIRCLE('',#528,0.1);
#415=VERTEX_POINT('',#529);
#416=CIRCLE('',#530,0.102);
#417=LINE('',#531,#532);
#418=LINE('',#533,#534);
#419=CARTESIAN_POINT('',(-0.00274999999999787,-0.1025,0.00775));
#420=CARTESIAN_POINT('',(-0.00274999999999787,-0.0999621803483698,0.00775));
#421=CARTESIAN_POINT('',(-0.00274999999999787,-0.1025,0.00775));
#422=VECTOR('',#535,1.0);
#423=CARTESIAN_POINT('',(0.00275000000000213,-0.1025,0.00775));
#424=AXIS2_PLACEMENT_3D('',#536,#537,#538);
#425=CARTESIAN_POINT('',(0.00275000000000213,-0.0999621803483697,0.00775));
#426=CARTESIAN_POINT('',(0.00275000000000213,-0.1025,0.00775));
#427=VECTOR('',#539,1.0);
#428=CARTESIAN_POINT('',(-0.00274999999999787,-0.0999621803483698,0.00775));
#429=CARTESIAN_POINT('',(-0.00274999999999787,-0.0999621803483698,0.00756832941137656));
#430=CARTESIAN_POINT('',(-0.00273217464068937,-0.0999626752447578,0.00738969609658659));
#431=CARTESIAN_POINT('',(-0.00266233286811932,-0.0999645597402172,0.0070382550531455));
#432=CARTESIAN_POINT('',(-0.00260946893167894,-0.0999659713936978,0.00686362740554484));
#433=CARTESIAN_POINT('',(-0.0024714585577706,-0.0999694786291708,0.00653062430776162));
#434=CARTESIAN_POINT('',(-0.00238700531150769,-0.0999715567722562,0.00637268566704757));
#435=CARTESIAN_POINT('',(-0.00218747971222544,-0.0999761216007813,0.0060737775691976));
#436=CARTESIAN_POINT('',(-0.00207134878354024,-0.0999786257582698,0.00593225702980513));
#437=CARTESIAN_POINT('',(-0.00181767016951476,-0.0999835594957996,0.00567858733140309));
#438=CARTESIAN_POINT('',(-0.00167925220202445,-0.0999860125220645,0.00556475418471172));
#439=CARTESIAN_POINT('',(-0.00137870110898575,-0.0999906084153533,0.00536371198651092));
#440=CARTESIAN_POINT('',(-0.00121866381561087,-0.0999927108732457,0.00527827408203233));
#441=CARTESIAN_POINT('',(-0.000887808923561067,-0.0999961957505946,0.00514109873236278));
#442=CARTESIAN_POINT('',(-0.000714557685003176,-0.0999976044929382,0.00508829895793147));
#443=CARTESIAN_POINT('',(-0.000359614857412131,-0.0999995108696318,0.00501761600852374));
#444=CARTESIAN_POINT('',(-0.000181199462117377,-0.0999999966376584,0.00500012226699646));
#445=CARTESIAN_POINT('',(0.000177469057527898,-0.100000003327552,0.00499987899808718));
#446=CARTESIAN_POINT('',(0.000359622637871453,-0.0999995088463951,0.00501769392605972));
#447=CARTESIAN_POINT('',(0.000712309856810073,-0.0999976185347922,0.0050877754431203));
#448=CARTESIAN_POINT('',(0.000883729778611359,-0.0999962336134059,0.00513964266397352));
#449=CARTESIAN_POINT('',(0.0012166690024231,-0.0999927368948715,0.00527721608669581));
#450=CARTESIAN_POINT('',(0.00137773523130797,-0.0999906198581151,0.00536327630181325));
#451=CARTESIAN_POINT('',(0.0016757875729735,-0.0999860687795452,0.0055622293563213));
#452=CARTESIAN_POINT('',(0.0018147066039696,-0.0999836153453173,0.00567580747950654));
#453=CARTESIAN_POINT('',(0.00207154390502387,-0.099978623732418,0.00593227050413945));
#454=CARTESIAN_POINT('',(0.00218561002836231,-0.0999761623687148,0.00607140160342992));
#455=CARTESIAN_POINT('',(0.00238488856949102,-0.0999716071676494,0.00636909801790371));
#456=CARTESIAN_POINT('',(0.00247101697394072,-0.0999694896142781,0.00652971191611762));
#457=CARTESIAN_POINT('',(0.00260922755940665,-0.099965977763277,0.00686289265790331));
#458=CARTESIAN_POINT('',(0.00266129805633701,-0.0999645874081926,0.00703427993893781));
#459=CARTESIAN_POINT('',(0.00273178581371596,-0.0999626859848355,0.00738653223189598));
#460=CARTESIAN_POINT('',(0.00275000000000213,-0.0999621803483697,0.00756832945080493));
#461=CARTESIAN_POINT('',(0.00275000000000213,-0.0999621803483697,0.00775));
#462=CARTESIAN_POINT('',(-0.00274999999999788,-0.1025,0.07225));
#463=CARTESIAN_POINT('',(-0.00274999999999788,-0.0999621803483698,0.07225));
#464=CARTESIAN_POINT('',(-0.00274999999999788,-0.1025,0.07225));
#465=VECTOR('',#540,1.0);
#466=CARTESIAN_POINT('',(-0.00274999999999788,-0.1025,0.07225));
#467=VECTOR('',#541,1.0);
#468=CARTESIAN_POINT('',(-0.00274999999999787,-0.0999621803483698,5.7880933570223E-018));
#469=VECTOR('',#542,1.0);
#470=CARTESIAN_POINT('',(0.00275000000000213,-0.1025,0.07225));
#471=CARTESIAN_POINT('',(0.00275000000000213,-0.0999621803483697,0.07225));
#472=CARTESIAN_POINT('',(0.00275000000000213,-0.1025,0.07225));
#473=VECTOR('',#543,1.0);
#474=AXIS2_PLACEMENT_3D('',#544,#545,#546);
#475=CARTESIAN_POINT('',(0.00275000000000213,-0.0999621803483697,0.07225));
#476=CARTESIAN_POINT('',(0.00275000000000213,-0.0999621803483697,0.0724316705886234));
#477=CARTESIAN_POINT('',(0.00273217464069363,-0.0999626752447577,0.0726103039034134));
#478=CARTESIAN_POINT('',(0.00266233286812357,-0.0999645597402171,0.0729617449468545));
#479=CARTESIAN_POINT('',(0.00260946893168319,-0.0999659713936977,0.0731363725944552));
#480=CARTESIAN_POINT('',(0.00247145855777486,-0.0999694786291706,0.0734693756922384));
#481=CARTESIAN_POINT('',(0.00238700531151195,-0.0999715567722561,0.0736273143329524));
#482=CARTESIAN_POINT('',(0.0021874797122297,-0.0999761216007812,0.0739262224308024));
#483=CARTESIAN_POINT('',(0.00207134878354449,-0.0999786257582697,0.0740677429701949));
#484=CARTESIAN_POINT('',(0.00181767016951901,-0.0999835594957995,0.0743214126685969));
#485=CARTESIAN_POINT('',(0.0016792522020287,-0.0999860125220644,0.0744352458152883));
#486=CARTESIAN_POINT('',(0.00137870110899,-0.0999906084153532,0.0746362880134891));
#487=CARTESIAN_POINT('',(0.00121866381561513,-0.0999927108732457,0.0747217259179677));
#488=CARTESIAN_POINT('',(0.000887808923565319,-0.0999961957505946,0.0748589012676372));
#489=CARTESIAN_POINT('',(0.000714557685007427,-0.0999976044929381,0.0749117010420685));
#490=CARTESIAN_POINT('',(0.000359614857416385,-0.0999995108696318,0.0749823839914763));
#491=CARTESIAN_POINT('',(0.000181199462121633,-0.0999999966376584,0.0749998777330035));
#492=CARTESIAN_POINT('',(-0.000177469057523638,-0.100000003327552,0.0750001210019128));
#493=CARTESIAN_POINT('',(-0.000359622637867206,-0.0999995088463951,0.0749823060739403));
#494=CARTESIAN_POINT('',(-0.00071230985680582,-0.0999976185347922,0.0749122245568797));
#495=CARTESIAN_POINT('',(-0.000883729778607104,-0.0999962336134059,0.0748603573360265));
#496=CARTESIAN_POINT('',(-0.00121666900241884,-0.0999927368948716,0.0747227839133042));
#497=CARTESIAN_POINT('',(-0.00137773523130372,-0.0999906198581152,0.0746367236981868));
#498=CARTESIAN_POINT('',(-0.00167578757296925,-0.0999860687795452,0.0744377706436787));
#499=CARTESIAN_POINT('',(-0.00181470660396535,-0.0999836153453174,0.0743241925204935));
#500=CARTESIAN_POINT('',(-0.00207154390501962,-0.0999786237324181,0.0740677294958605));
#501=CARTESIAN_POINT('',(-0.00218561002835806,-0.0999761623687149,0.0739285983965701));
#502=CARTESIAN_POINT('',(-0.00238488856948677,-0.0999716071676495,0.0736309019820963));
#503=CARTESIAN_POINT('',(-0.00247101697393646,-0.0999694896142782,0.0734702880838824));
#504=CARTESIAN_POINT('',(-0.0026092275594024,-0.0999659777632771,0.0731371073420967));
#505=CARTESIAN_POINT('',(-0.00266129805633275,-0.0999645874081927,0.0729657200610622));
#506=CARTESIAN_POINT('',(-0.00273178581371171,-0.0999626859848356,0.072613467768104));
#507=CARTESIAN_POINT('',(-0.00274999999999788,-0.0999621803483698,0.0724316705491951));
#508=CARTESIAN_POINT('',(-0.00274999999999788,-0.0999621803483698,0.07225));
#509=CARTESIAN_POINT('',(0.0,0.1155,0.08));
#510=AXIS2_PLACEMENT_3D('',#547,#548,#549);
#511=CARTESIAN_POINT('',(0.0,0.1175,0.078));
#512=AXIS2_PLACEMENT_3D('',#550,#551,#552);
#513=CARTESIAN_POINT('',(0.0,0.1175,0.072));
#514=AXIS2_PLACEMENT_3D('',#553,#554,#555);
#515=CARTESIAN_POINT('',(0.0,0.1155,0.07));
#516=AXIS2_PLACEMENT_3D('',#556,#557,#558);
#517=CARTESIAN_POINT('',(0.0,0.11,0.07));
#518=AXIS2_PLACEMENT_3D('',#559,#560,#561);
#519=CARTESIAN_POINT('',(0.0,0.11,0.002));
#520=AXIS2_PLACEMENT_3D('',#562,#563,#564);
#521=CARTESIAN_POINT('',(0.0,0.108,-6.61309271539571E-018));
#522=AXIS2_PLACEMENT_3D('',#565,#566,#567);
#523=CARTESIAN_POINT('',(0.0,0.102,-6.2456986756515E-018));
#524=AXIS2_PLACEMENT_3D('',#568,#569,#570);
#525=CARTESIAN_POINT('',(0.0,0.1,0.002));
#526=AXIS2_PLACEMENT_3D('',#571,#572,#573);
#527=CARTESIAN_POINT('',(0.0,0.1,0.078));
#528=AXIS2_PLACEMENT_3D('',#574,#575,#576);
#529=CARTESIAN_POINT('',(0.0,0.102,0.08));
#530=AXIS2_PLACEMENT_3D('',#577,#578,#579);
#531=CARTESIAN_POINT('',(0.00275000000000213,-0.0999621803483697,6.12091820997107E-018));
#532=VECTOR('',#580,1.0);
#533=CARTESIAN_POINT('',(0.00275000000000213,-0.1025,0.00775));
#534=VECTOR('',#581,1.0);
#535=DIRECTION('',(0.0,1.0,0.0));
#536=CARTESIAN_POINT('',(2.12937306676153E-015,-0.1025,0.00775));
#537=DIRECTION('',(0.0,-1.0,0.0));
#538=DIRECTION('',(0.0,0.0,-1.0));
#539=DIRECTION('',(0.0,1.0,0.0));
#540=DIRECTION('',(0.0,1.0,0.0));
#541=DIRECTION('',(1.21027219254196E-016,0.0,-1.0));
#542=DIRECTION('',(0.0,-6.12323399573677E-017,-1.0));
#543=DIRECTION('',(0.0,1.0,0.0));
#544=CARTESIAN_POINT('',(2.12546993894058E-015,-0.1025,0.07225));
#545=DIRECTION('',(0.0,-1.0,0.0));
#546=DIRECTION('',(0.0,0.0,-1.0));
#547=CARTESIAN_POINT('',(0.0,6.93889390390723E-018,0.08));
#548=DIRECTION('',(0.0,-6.12323399573677E-017,-1.0));
#549=DIRECTION('',(0.0,1.0,-6.12323399573677E-017));
#550=CARTESIAN_POINT('',(0.0,6.93889390390723E-018,0.078));
#551=DIRECTION('',(0.0,-6.12323399573677E-017,-1.0));
#552=DIRECTION('',(0.0,1.0,-6.12323399573677E-017));
#553=CARTESIAN_POINT('',(0.0,6.93889390390723E-018,0.072));
#554=DIRECTION('',(0.0,-6.12323399573677E-017,-1.0));
#555=DIRECTION('',(0.0,1.0,-6.12323399573677E-017));
#556=CARTESIAN_POINT('',(0.0,6.93889390390723E-018,0.07));
#557=DIRECTION('',(0.0,-6.12323399573677E-017,-1.0));
#558=DIRECTION('',(0.0,1.0,-6.12323399573677E-017));
#559=CARTESIAN_POINT('',(0.0,6.93889390390723E-018,0.07));
#560=DIRECTION('',(0.0,-6.12323399573677E-017,-1.0));
#561=DIRECTION('',(0.0,1.0,-6.12323399573677E-017));
#562=CARTESIAN_POINT('',(0.0,0.0,0.002));
#563=DIRECTION('',(0.0,-6.12323399573677E-017,-1.0));
#564=DIRECTION('',(0.0,1.0,-6.12323399573677E-017));
#565=CARTESIAN_POINT('',(0.0,0.0,0.0));
#566=DIRECTION('',(0.0,-6.12323399573677E-017,-1.0));
#567=DIRECTION('',(0.0,1.0,-6.12323399573677E-017));
#568=CARTESIAN_POINT('',(0.0,0.0,0.0));
#569=DIRECTION('',(0.0,-6.12323399573677E-017,-1.0));
#570=DIRECTION('',(0.0,1.0,-6.12323399573677E-017));
#571=CARTESIAN_POINT('',(0.0,0.0,0.002));
#572=DIRECTION('',(0.0,-6.12323399573677E-017,-1.0));
#573=DIRECTION('',(0.0,1.0,-6.12323399573677E-017));
#574=CARTESIAN_POINT('',(0.0,6.93889390390723E-018,0.078));
#575=DIRECTION('',(0.0,-6.12323399573677E-017,-1.0));
#576=DIRECTION('',(0.0,1.0,-6.12323399573677E-017));
#577=CARTESIAN_POINT('',(0.0,6.93889390390723E-018,0.08));
#578=DIRECTION('',(0.0,-6.12323399573677E-017,-1.0));
#579=DIRECTION('',(0.0,1.0,-6.12323399573677E-017));
#580=DIRECTION('',(0.0,-6.12323399573677E-017,-1.0));
#581=DIRECTION('',(0.0,0.0,1.0));
ENDSEC;
END-ISO-10303-21;
