ISO-10303-21;
HEADER;
FILE_DESCRIPTION(('STEP AP203'),'1');
FILE_NAME('410-BM4026F45LMB.stp','2016-09-19T22:57:09',(' '),(' '),'Spatial InterOp 3D',' ',' ');
FILE_SCHEMA(('CONFIG_CONTROL_DESIGN'));
ENDSEC;
DATA;
#1=DESIGN_CONTEXT('',#51,'design');
#2=APPLICATION_PROTOCOL_DEFINITION('INTERNATIONAL STANDARD','config_control_design',1994,#51);
#3=PRODUCT_CATEGORY_RELATIONSHIP('NONE','NONE',#52,#53);
#4=DATE_AND_TIME(#54,#55);
#5=DATE_TIME_ROLE('creation_date');
#6=DATE_TIME_ROLE('classification_date');
#7=PERSON_AND_ORGANIZATION_ROLE('creator');
#8=PERSON_AND_ORGANIZATION_ROLE('design_supplier');
#9=PERSON_AND_ORGANIZATION_ROLE('classification_officer');
#10=PERSON_AND_ORGANIZATION_ROLE('design_owner');
#11=APPROVAL_PERSON_ORGANIZATION(#56,#57,#58);
#12=APPROVAL_DATE_TIME(#4,#57);
#13=CC_DESIGN_APPROVAL(#57,(#59,#60,#61));
#14=CC_DESIGN_DATE_AND_TIME_ASSIGNMENT(#4,#5,(#61));
#15=CC_DESIGN_DATE_AND_TIME_ASSIGNMENT(#4,#6,(#59));
#16=CC_DESIGN_PERSON_AND_ORGANIZATION_ASSIGNMENT(#56,#10,(#62));
#17=CC_DESIGN_PERSON_AND_ORGANIZATION_ASSIGNMENT(#56,#7,(#61));
#18=CC_DESIGN_PERSON_AND_ORGANIZATION_ASSIGNMENT(#56,#7,(#60));
#19=CC_DESIGN_PERSON_AND_ORGANIZATION_ASSIGNMENT(#56,#8,(#60));
#20=CC_DESIGN_SECURITY_CLASSIFICATION(#59,(#60));
#21=CC_DESIGN_PERSON_AND_ORGANIZATION_ASSIGNMENT(#56,#9,(#59));
#22=SHAPE_DEFINITION_REPRESENTATION(#63,#64);
#23=DESIGN_CONTEXT('',#65,'design');
#24=APPLICATION_PROTOCOL_DEFINITION('INTERNATIONAL STANDARD','config_control_design',1994,#65);
#25=PRODUCT_CATEGORY_RELATIONSHIP('NONE','NONE',#66,#67);
#26=DATE_AND_TIME(#68,#69);
#27=DATE_TIME_ROLE('creation_date');
#28=DATE_TIME_ROLE('classification_date');
#29=PERSON_AND_ORGANIZATION_ROLE('creator');
#30=PERSON_AND_ORGANIZATION_ROLE('design_supplier');
#31=PERSON_AND_ORGANIZATION_ROLE('classification_officer');
#32=PERSON_AND_ORGANIZATION_ROLE('design_owner');
#33=APPROVAL_PERSON_ORGANIZATION(#70,#71,#72);
#34=APPROVAL_DATE_TIME(#26,#71);
#35=CC_DESIGN_APPROVAL(#71,(#73,#74,#75));
#36=CC_DESIGN_DATE_AND_TIME_ASSIGNMENT(#26,#27,(#75));
#37=CC_DESIGN_DATE_AND_TIME_ASSIGNMENT(#26,#28,(#73));
#38=CC_DESIGN_PERSON_AND_ORGANIZATION_ASSIGNMENT(#70,#32,(#76));
#39=CC_DESIGN_PERSON_AND_ORGANIZATION_ASSIGNMENT(#70,#29,(#75));
#40=CC_DESIGN_PERSON_AND_ORGANIZATION_ASSIGNMENT(#70,#29,(#74));
#41=CC_DESIGN_PERSON_AND_ORGANIZATION_ASSIGNMENT(#70,#30,(#74));
#42=CC_DESIGN_SECURITY_CLASSIFICATION(#73,(#74));
#43=CC_DESIGN_PERSON_AND_ORGANIZATION_ASSIGNMENT(#70,#31,(#73));
#44=CONTEXT_DEPENDENT_SHAPE_REPRESENTATION(#77,#78);
#45=SHAPE_DEFINITION_REPRESENTATION(#79,#80);
#46=SHAPE_REPRESENTATION_RELATIONSHIP('NONE','NONE',#80,#81);
#47= (GEOMETRIC_REPRESENTATION_CONTEXT(3)GLOBAL_UNCERTAINTY_ASSIGNED_CONTEXT((#84))GLOBAL_UNIT_ASSIGNED_CONTEXT((#86,#87,#88))REPRESENTATION_CONTEXT('NONE','WORKSPACE'));
#51=APPLICATION_CONTEXT('CONFIGURATION CONTROLLED 3D DESIGNS OF MECHANICAL PARTS AND ASSEMBLIES');
#52=PRODUCT_CATEGORY('part','NONE');
#53=PRODUCT_RELATED_PRODUCT_CATEGORY('detail',' ',(#62));
#54=CALENDAR_DATE(2016,20,8);
#55=LOCAL_TIME(0,57,9.0,#90);
#56=PERSON_AND_ORGANIZATION(#91,#92);
#57=APPROVAL(#93,'SOLID MODEL');
#58=APPROVAL_ROLE('APPROVED');
#59=SECURITY_CLASSIFICATION('','',#94);
#60=PRODUCT_DEFINITION_FORMATION_WITH_SPECIFIED_SOURCE(' ','NONE',#62,.NOT_KNOWN.);
#61=PRODUCT_DEFINITION('NONE','NONE',#60,#1);
#62=PRODUCT('','','PART--DESC',(#95));
#63=PRODUCT_DEFINITION_SHAPE('NONE','NONE',#61);
#64=SHAPE_REPRESENTATION('',(#96,#97),#98);
#65=APPLICATION_CONTEXT('CONFIGURATION CONTROLLED 3D DESIGNS OF MECHANICAL PARTS AND ASSEMBLIES');
#66=PRODUCT_CATEGORY('part','NONE');
#67=PRODUCT_RELATED_PRODUCT_CATEGORY('detail',' ',(#76));
#68=CALENDAR_DATE(2016,20,8);
#69=LOCAL_TIME(0,57,9.0,#99);
#70=PERSON_AND_ORGANIZATION(#100,#101);
#71=APPROVAL(#102,'SOLID MODEL');
#72=APPROVAL_ROLE('APPROVED');
#73=SECURITY_CLASSIFICATION('','',#103);
#74=PRODUCT_DEFINITION_FORMATION_WITH_SPECIFIED_SOURCE(' ','NONE',#76,.NOT_KNOWN.);
#75=PRODUCT_DEFINITION('410-BM4026F45LMB','410-BM4026F45LMB',#74,#23);
#76=PRODUCT('410-BM4026F45LMB','410-BM4026F45LMB','PART-410-BM4026F45LMB-DESC',(#104));
#77=(REPRESENTATION_RELATIONSHIP('','',#80,#64)REPRESENTATION_RELATIONSHIP_WITH_TRANSFORMATION(#107)SHAPE_REPRESENTATION_RELATIONSHIP());
#78=PRODUCT_DEFINITION_SHAPE('NAUO-PROD-DEF','NAUO-PROD-DEF',#109);
#79=PRODUCT_DEFINITION_SHAPE('NONE','NONE',#75);
#80=SHAPE_REPRESENTATION('410-BM4026F45LMB',(#96),#98);
#81=ADVANCED_BREP_SHAPE_REPRESENTATION('',(#110),#47);
#84=UNCERTAINTY_MEASURE_WITH_UNIT(LENGTH_MEASURE(1.0E-006),#86,'','');
#86= (CONVERSION_BASED_UNIT('METRE',#113)LENGTH_UNIT()NAMED_UNIT(#116));
#87= (NAMED_UNIT(#118)PLANE_ANGLE_UNIT()SI_UNIT($,.RADIAN.));
#88= (NAMED_UNIT(#118)SOLID_ANGLE_UNIT()SI_UNIT($,.STERADIAN.));
#90=COORDINATED_UNIVERSAL_TIME_OFFSET(1,0,.AHEAD.);
#91=PERSON('','UNSPECIFIED',$,$,$,$);
#92=ORGANIZATION('UNSPECIFIED','UNSPECIFIED','UNSPECIFIED');
#93=APPROVAL_STATUS('approved');
#94=SECURITY_CLASSIFICATION_LEVEL('unclassified');
#95=MECHANICAL_CONTEXT('',#51,'mechanical');
#96=AXIS2_PLACEMENT_3D('',#124,#125,#126);
#97=AXIS2_PLACEMENT_3D('',#127,#128,#129);
#98= (GEOMETRIC_REPRESENTATION_CONTEXT(3)GLOBAL_UNCERTAINTY_ASSIGNED_CONTEXT((#132))GLOBAL_UNIT_ASSIGNED_CONTEXT((#134,#135,#136))REPRESENTATION_CONTEXT('NONE','WORKSPACE'));
#99=COORDINATED_UNIVERSAL_TIME_OFFSET(1,0,.AHEAD.);
#100=PERSON('','UNSPECIFIED',$,$,$,$);
#101=ORGANIZATION('UNSPECIFIED','UNSPECIFIED','UNSPECIFIED');
#102=APPROVAL_STATUS('approved');
#103=SECURITY_CLASSIFICATION_LEVEL('unclassified');
#104=MECHANICAL_CONTEXT('',#65,'mechanical');
#107=ITEM_DEFINED_TRANSFORMATION('','',#96,#97);
#109=NEXT_ASSEMBLY_USAGE_OCCURRENCE('410-BM4026F45LMB','410-BM4026F45LMB','410-BM4026F45LMB',#61,#75,$);
#110=MANIFOLD_SOLID_BREP('',#138);
#113=LENGTH_MEASURE_WITH_UNIT(LENGTH_MEASURE(1.0),#139);
#116=DIMENSIONAL_EXPONENTS(1.0,0.0,0.0,0.0,0.0,0.0,0.0);
#118=DIMENSIONAL_EXPONENTS(0.0,0.0,0.0,0.0,0.0,0.0,0.0);
#124=CARTESIAN_POINT('',(0.0,0.0,0.0));
#125=DIRECTION('',(0.0,0.0,1.0));
#126=DIRECTION('',(1.0,0.0,0.0));
#127=CARTESIAN_POINT('',(0.0,0.0,0.0));
#128=DIRECTION('',(0.0,0.0,1.0));
#129=DIRECTION('',(-1.0,-7.6571373978539E-016,0.0));
#132=UNCERTAINTY_MEASURE_WITH_UNIT(LENGTH_MEASURE(1.0E-006),#134,'','');
#134= (CONVERSION_BASED_UNIT('METRE',#142)LENGTH_UNIT()NAMED_UNIT(#145));
#135= (NAMED_UNIT(#147)PLANE_ANGLE_UNIT()SI_UNIT($,.RADIAN.));
#136= (NAMED_UNIT(#147)SOLID_ANGLE_UNIT()SI_UNIT($,.STERADIAN.));
#138=CLOSED_SHELL('',(#153,#154,#155,#156,#157,#158,#159,#160,#161,#162));
#139= (NAMED_UNIT(#116)LENGTH_UNIT()SI_UNIT($,.METRE.));
#142=LENGTH_MEASURE_WITH_UNIT(LENGTH_MEASURE(1.0),#164);
#145=DIMENSIONAL_EXPONENTS(1.0,0.0,0.0,0.0,0.0,0.0,0.0);
#147=DIMENSIONAL_EXPONENTS(0.0,0.0,0.0,0.0,0.0,0.0,0.0);
#153=ADVANCED_FACE('',(#165),#166,.F.);
#154=ADVANCED_FACE('',(#167),#168,.F.);
#155=ADVANCED_FACE('',(#169),#170,.T.);
#156=ADVANCED_FACE('',(#171),#172,.T.);
#157=ADVANCED_FACE('',(#173),#174,.T.);
#158=ADVANCED_FACE('',(#175),#176,.T.);
#159=ADVANCED_FACE('',(#177),#178,.T.);
#160=ADVANCED_FACE('',(#179),#180,.T.);
#161=ADVANCED_FACE('',(#181),#182,.F.);
#162=ADVANCED_FACE('',(#183),#184,.T.);
#164= (NAMED_UNIT(#145)LENGTH_UNIT()SI_UNIT($,.METRE.));
#165=FACE_OUTER_BOUND('',#186,.T.);
#166=PLANE('',#187);
#167=FACE_OUTER_BOUND('',#188,.T.);
#168=CONICAL_SURFACE('',#189,0.02,0.523598775598298);
#169=FACE_OUTER_BOUND('',#190,.T.);
#170=CONICAL_SURFACE('',#191,0.0215632357188805,0.349065850398868);
#171=FACE_OUTER_BOUND('',#192,.T.);
#172=PLANE('',#193);
#173=FACE_OUTER_BOUND('',#194,.T.);
#174=CYLINDRICAL_SURFACE('',#195,0.022);
#175=FACE_OUTER_BOUND('',#196,.T.);
#176=PLANE('',#197);
#177=FACE_OUTER_BOUND('',#198,.T.);
#178=CYLINDRICAL_SURFACE('',#199,0.0225);
#179=FACE_OUTER_BOUND('',#200,.T.);
#180=PLANE('',#201);
#181=FACE_OUTER_BOUND('',#202,.T.);
#182=CYLINDRICAL_SURFACE('',#203,0.02);
#183=FACE_OUTER_BOUND('',#204,.T.);
#184=PLANE('',#205);
#186=EDGE_LOOP('',(#206,#207,#208,#209,#210,#211,#212,#213));
#187=AXIS2_PLACEMENT_3D('',#214,#215,#216);
#188=EDGE_LOOP('',(#217,#218,#219,#220));
#189=AXIS2_PLACEMENT_3D('',#221,#222,#223);
#190=EDGE_LOOP('',(#224,#225,#226,#227));
#191=AXIS2_PLACEMENT_3D('',#228,#229,#230);
#192=EDGE_LOOP('',(#231,#232,#233,#234));
#193=AXIS2_PLACEMENT_3D('',#235,#236,#237);
#194=EDGE_LOOP('',(#238,#239,#240,#241));
#195=AXIS2_PLACEMENT_3D('',#242,#243,#244);
#196=EDGE_LOOP('',(#245,#246,#247,#248));
#197=AXIS2_PLACEMENT_3D('',#249,#250,#251);
#198=EDGE_LOOP('',(#252,#253,#254,#255));
#199=AXIS2_PLACEMENT_3D('',#256,#257,#258);
#200=EDGE_LOOP('',(#259,#260,#261,#262));
#201=AXIS2_PLACEMENT_3D('',#263,#264,#265);
#202=EDGE_LOOP('',(#266,#267,#268,#269));
#203=AXIS2_PLACEMENT_3D('',#270,#271,#272);
#204=EDGE_LOOP('',(#273,#274,#275,#276,#277,#278,#279,#280));
#205=AXIS2_PLACEMENT_3D('',#281,#282,#283);
#206=ORIENTED_EDGE('',*,*,#284,.T.);
#207=ORIENTED_EDGE('',*,*,#285,.F.);
#208=ORIENTED_EDGE('',*,*,#286,.T.);
#209=ORIENTED_EDGE('',*,*,#287,.T.);
#210=ORIENTED_EDGE('',*,*,#288,.T.);
#211=ORIENTED_EDGE('',*,*,#289,.T.);
#212=ORIENTED_EDGE('',*,*,#290,.F.);
#213=ORIENTED_EDGE('',*,*,#291,.T.);
#214=CARTESIAN_POINT('',(0.00829044144318366,0.00188838412504393,-7.25566158980038E-019));
#215=DIRECTION('',(-0.173648177666931,-0.984807753012208,6.67201336914157E-017));
#216=DIRECTION('',(-1.15858296292083E-017,-6.57065049413172E-017,-1.0));
#217=ORIENTED_EDGE('',*,*,#292,.T.);
#218=ORIENTED_EDGE('',*,*,#293,.T.);
#219=ORIENTED_EDGE('',*,*,#294,.F.);
#220=ORIENTED_EDGE('',*,*,#291,.F.);
#221=CARTESIAN_POINT('',(0.0,0.0,0.0005));
#222=DIRECTION('',(0.0,-6.12323399573677E-017,-1.0));
#223=DIRECTION('',(0.0,1.0,-6.12323399573677E-017));
#224=ORIENTED_EDGE('',*,*,#295,.T.);
#225=ORIENTED_EDGE('',*,*,#296,.T.);
#226=ORIENTED_EDGE('',*,*,#297,.F.);
#227=ORIENTED_EDGE('',*,*,#289,.F.);
#228=CARTESIAN_POINT('',(0.0,0.0,0.0));
#229=DIRECTION('',(-0.0,6.12323399573677E-017,1.0));
#230=DIRECTION('',(0.0,-1.0,6.12323399573677E-017));
#231=ORIENTED_EDGE('',*,*,#297,.T.);
#232=ORIENTED_EDGE('',*,*,#298,.F.);
#233=ORIENTED_EDGE('',*,*,#292,.F.);
#234=ORIENTED_EDGE('',*,*,#290,.T.);
#235=CARTESIAN_POINT('',(0.0202886751345948,0.0,0.0));
#236=DIRECTION('',(0.0,-6.12323399573677E-017,-1.0));
#237=DIRECTION('',(0.0,1.0,-6.12323399573677E-017));
#238=ORIENTED_EDGE('',*,*,#299,.T.);
#239=ORIENTED_EDGE('',*,*,#300,.T.);
#240=ORIENTED_EDGE('',*,*,#295,.F.);
#241=ORIENTED_EDGE('',*,*,#288,.F.);
#242=CARTESIAN_POINT('',(0.0,0.0,0.0));
#243=DIRECTION('',(0.0,-6.12323399573677E-017,-1.0));
#244=DIRECTION('',(0.0,1.0,-6.12323399573677E-017));
#245=ORIENTED_EDGE('',*,*,#301,.T.);
#246=ORIENTED_EDGE('',*,*,#302,.T.);
#247=ORIENTED_EDGE('',*,*,#299,.F.);
#248=ORIENTED_EDGE('',*,*,#287,.F.);
#249=CARTESIAN_POINT('',(0.022,0.0,0.024));
#250=DIRECTION('',(0.0,-6.12323399573677E-017,-1.0));
#251=DIRECTION('',(0.0,1.0,-6.12323399573677E-017));
#252=ORIENTED_EDGE('',*,*,#303,.T.);
#253=ORIENTED_EDGE('',*,*,#304,.T.);
#254=ORIENTED_EDGE('',*,*,#301,.F.);
#255=ORIENTED_EDGE('',*,*,#286,.F.);
#256=CARTESIAN_POINT('',(0.0,0.0,0.0));
#257=DIRECTION('',(0.0,-6.12323399573677E-017,-1.0));
#258=DIRECTION('',(0.0,1.0,-6.12323399573677E-017));
#259=ORIENTED_EDGE('',*,*,#305,.T.);
#260=ORIENTED_EDGE('',*,*,#306,.F.);
#261=ORIENTED_EDGE('',*,*,#303,.F.);
#262=ORIENTED_EDGE('',*,*,#285,.T.);
#263=CARTESIAN_POINT('',(0.0225,0.0,0.026));
#264=DIRECTION('',(0.0,6.12323399573677E-017,1.0));
#265=DIRECTION('',(0.0,-1.0,6.12323399573677E-017));
#266=ORIENTED_EDGE('',*,*,#294,.T.);
#267=ORIENTED_EDGE('',*,*,#307,.T.);
#268=ORIENTED_EDGE('',*,*,#305,.F.);
#269=ORIENTED_EDGE('',*,*,#284,.F.);
#270=CARTESIAN_POINT('',(0.0,0.0,0.0));
#271=DIRECTION('',(0.0,-6.12323399573677E-017,-1.0));
#272=DIRECTION('',(0.0,1.0,-6.12323399573677E-017));
#273=ORIENTED_EDGE('',*,*,#293,.F.);
#274=ORIENTED_EDGE('',*,*,#298,.T.);
#275=ORIENTED_EDGE('',*,*,#296,.F.);
#276=ORIENTED_EDGE('',*,*,#300,.F.);
#277=ORIENTED_EDGE('',*,*,#302,.F.);
#278=ORIENTED_EDGE('',*,*,#304,.F.);
#279=ORIENTED_EDGE('',*,*,#306,.T.);
#280=ORIENTED_EDGE('',*,*,#307,.F.);
#281=CARTESIAN_POINT('',(0.00829044144318366,-0.00188838412504393,-4.97819166019021E-019));
#282=DIRECTION('',(0.173648177666931,-0.984807753012208,6.30273717454405E-017));
#283=DIRECTION('',(-9.67993886654943E-018,-6.57065049413172E-017,-1.0));
#284=EDGE_CURVE('',#308,#309,#310,.F.);
#285=EDGE_CURVE('',#311,#309,#312,.T.);
#286=EDGE_CURVE('',#311,#313,#314,.T.);
#287=EDGE_CURVE('',#313,#315,#316,.T.);
#288=EDGE_CURVE('',#315,#317,#318,.T.);
#289=EDGE_CURVE('',#317,#319,#320,.T.);
#290=EDGE_CURVE('',#321,#319,#322,.T.);
#291=EDGE_CURVE('',#321,#308,#323,.T.);
#292=EDGE_CURVE('',#321,#324,#325,.T.);
#293=EDGE_CURVE('',#324,#326,#327,.T.);
#294=EDGE_CURVE('',#308,#326,#328,.T.);
#295=EDGE_CURVE('',#317,#329,#330,.T.);
#296=EDGE_CURVE('',#329,#331,#332,.T.);
#297=EDGE_CURVE('',#319,#331,#333,.T.);
#298=EDGE_CURVE('',#324,#331,#334,.T.);
#299=EDGE_CURVE('',#315,#335,#336,.T.);
#300=EDGE_CURVE('',#335,#329,#337,.T.);
#301=EDGE_CURVE('',#313,#338,#339,.T.);
#302=EDGE_CURVE('',#338,#335,#340,.T.);
#303=EDGE_CURVE('',#311,#341,#342,.T.);
#304=EDGE_CURVE('',#341,#338,#343,.T.);
#305=EDGE_CURVE('',#309,#344,#345,.T.);
#306=EDGE_CURVE('',#341,#344,#346,.T.);
#307=EDGE_CURVE('',#326,#344,#347,.F.);
#308=VERTEX_POINT('',#348);
#309=VERTEX_POINT('',#349);
#310=LINE('',#350,#351);
#311=VERTEX_POINT('',#352);
#312=LINE('',#353,#354);
#313=VERTEX_POINT('',#355);
#314=LINE('',#356,#357);
#315=VERTEX_POINT('',#358);
#316=LINE('',#359,#360);
#317=VERTEX_POINT('',#361);
#318=LINE('',#362,#363);
#319=VERTEX_POINT('',#364);
#320=B_SPLINE_CURVE_WITH_KNOTS('',3,(#365,#366,#367,#368),.UNSPECIFIED.,.F.,.F.,(4,4),(2.13121777543792E-007,0.00127897937829155),.UNSPECIFIED.);
#321=VERTEX_POINT('',#369);
#322=LINE('',#370,#371);
#323=B_SPLINE_CURVE_WITH_KNOTS('',3,(#372,#373,#374,#375),.UNSPECIFIED.,.F.,.F.,(4,4),(2.31722907380915E-007,0.000579567983710112),.UNSPECIFIED.);
#324=VERTEX_POINT('',#376);
#325=CIRCLE('',#377,0.0202886751345948);
#326=VERTEX_POINT('',#378);
#327=B_SPLINE_CURVE_WITH_KNOTS('',3,(#379,#380,#381,#382),.UNSPECIFIED.,.F.,.F.,(4,4),(2.3172290738093E-007,0.000579567983710112),.UNSPECIFIED.);
#328=CIRCLE('',#383,0.02);
#329=VERTEX_POINT('',#384);
#330=CIRCLE('',#385,0.022);
#331=VERTEX_POINT('',#386);
#332=B_SPLINE_CURVE_WITH_KNOTS('',3,(#387,#388,#389,#390),.UNSPECIFIED.,.F.,.F.,(4,4),(2.13121777543588E-007,0.00127897937829155),.UNSPECIFIED.);
#333=CIRCLE('',#391,0.0215632357188805);
#334=LINE('',#392,#393);
#335=VERTEX_POINT('',#394);
#336=CIRCLE('',#395,0.022);
#337=LINE('',#396,#397);
#338=VERTEX_POINT('',#398);
#339=CIRCLE('',#399,0.0225);
#340=LINE('',#400,#401);
#341=VERTEX_POINT('',#402);
#342=CIRCLE('',#403,0.0225);
#343=LINE('',#404,#405);
#344=VERTEX_POINT('',#406);
#345=CIRCLE('',#407,0.02);
#346=LINE('',#408,#409);
#347=LINE('',#410,#411);
#348=CARTESIAN_POINT('',(0.0199992239108482,-0.000176190135251558,0.0005));
#349=CARTESIAN_POINT('',(0.0199992239108482,-0.000176190135251556,0.026));
#350=CARTESIAN_POINT('',(0.0199992239108482,-0.000176190135251558,-1.03866386564424E-020));
#351=VECTOR('',#412,1.0);
#352=CARTESIAN_POINT('',(0.0224915754018942,-0.00061565894853195,0.026));
#353=CARTESIAN_POINT('',(0.0239240387650611,-0.000868240888334648,0.026));
#354=VECTOR('',#413,1.0);
#355=CARTESIAN_POINT('',(0.0224915754018942,-0.000615658948531947,0.024));
#356=CARTESIAN_POINT('',(0.0224915754018942,-0.00061565894853195,1.65230651190036E-020));
#357=VECTOR('',#414,1.0);
#358=CARTESIAN_POINT('',(0.02199366634831,-0.000527864148446042,0.024));
#359=CARTESIAN_POINT('',(0.0219095389311789,-0.0005130302149885,0.024));
#360=VECTOR('',#415,1.0);
#361=CARTESIAN_POINT('',(0.02199366634831,-0.000527864148446044,0.0012));
#362=CARTESIAN_POINT('',(0.02199366634831,-0.000527864148446044,1.11471840736542E-020));
#363=VECTOR('',#416,1.0);
#364=CARTESIAN_POINT('',(0.0215585159860287,-0.000451135398910786,6.43083039248804E-019));
#365=CARTESIAN_POINT('',(0.02199366634831,-0.000527864148446047,0.00120000000000001));
#366=CARTESIAN_POINT('',(0.0218486459992206,-0.000502293148149827,0.000799988869676608));
#367=CARTESIAN_POINT('',(0.0217035964932325,-0.000476717006705688,0.000399988637164693));
#368=CARTESIAN_POINT('',(0.0215585159860287,-0.000451135398910786,-2.45692106726708E-018));
#369=CARTESIAN_POINT('',(0.0202874051515112,-0.000227004263314494,6.43083039248804E-019));
#370=CARTESIAN_POINT('',(0.019,0.0,6.43083039248804E-019));
#371=VECTOR('',#417,1.0);
#372=CARTESIAN_POINT('',(0.0202874051515112,-0.000227004263314495,-2.5145944106843E-018));
#373=CARTESIAN_POINT('',(0.020191358768371,-0.000210068694567413,0.000166675003875789));
#374=CARTESIAN_POINT('',(0.0200952985607996,-0.000193130688200115,0.00033334179461361));
#375=CARTESIAN_POINT('',(0.0199992239108481,-0.00017619013525156,0.000499999999999996));
#376=CARTESIAN_POINT('',(0.0202874051515112,0.000227004263314494,6.15705379336521E-019));
#377=AXIS2_PLACEMENT_3D('',#418,#419,#420);
#378=CARTESIAN_POINT('',(0.0199992239108482,0.00017619013525156,0.0005));
#379=CARTESIAN_POINT('',(0.0202874051515112,0.000227004263314495,-2.53343972997512E-018));
#380=CARTESIAN_POINT('',(0.020191358768371,0.000210068694567413,0.000166675003875789));
#381=CARTESIAN_POINT('',(0.0200952985607996,0.000193130688200115,0.00033334179461361));
#382=CARTESIAN_POINT('',(0.0199992239108481,0.00017619013525156,0.000499999999999996));
#383=AXIS2_PLACEMENT_3D('',#421,#422,#423);
#384=CARTESIAN_POINT('',(0.02199366634831,0.000527864148446046,0.0012));
#385=AXIS2_PLACEMENT_3D('',#424,#425,#426);
#386=CARTESIAN_POINT('',(0.0215585159860287,0.000451135398910786,-2.7624076112908E-020));
#387=CARTESIAN_POINT('',(0.02199366634831,0.000527864148446047,0.00120000000000001));
#388=CARTESIAN_POINT('',(0.0218486459992206,0.000502293148149828,0.000799988869676608));
#389=CARTESIAN_POINT('',(0.0217035964932325,0.000476717006705688,0.000399988637164693));
#390=CARTESIAN_POINT('',(0.0215585159860287,0.000451135398910786,-3.37469943197108E-018));
#391=AXIS2_PLACEMENT_3D('',#427,#428,#429);
#392=CARTESIAN_POINT('',(0.019,0.0,6.43083039248804E-019));
#393=VECTOR('',#430,1.0);
#394=CARTESIAN_POINT('',(0.02199366634831,0.000527864148446046,0.024));
#395=AXIS2_PLACEMENT_3D('',#431,#432,#433);
#396=CARTESIAN_POINT('',(0.02199366634831,0.000527864148446045,-2.33307703407053E-020));
#397=VECTOR('',#434,1.0);
#398=CARTESIAN_POINT('',(0.0224915754018942,0.000615658948531952,0.024));
#399=AXIS2_PLACEMENT_3D('',#435,#436,#437);
#400=CARTESIAN_POINT('',(0.0219095389311789,0.000513030214988504,0.024));
#401=VECTOR('',#438,1.0);
#402=CARTESIAN_POINT('',(0.0224915754018942,0.000615658948531955,0.026));
#403=AXIS2_PLACEMENT_3D('',#439,#440,#441);
#404=CARTESIAN_POINT('',(0.0224915754018942,0.000615658948531952,-2.87066513860546E-020));
#405=VECTOR('',#442,1.0);
#406=CARTESIAN_POINT('',(0.0199992239108482,0.000176190135251562,0.026));
#407=AXIS2_PLACEMENT_3D('',#443,#444,#445);
#408=CARTESIAN_POINT('',(0.0239240387650611,0.000868240888334653,0.026));
#409=VECTOR('',#446,1.0);
#410=CARTESIAN_POINT('',(0.0199992239108482,0.000176190135251559,-1.79694761060873E-021));
#411=VECTOR('',#447,1.0);
#412=DIRECTION('',(0.0,-6.12323399573677E-017,-1.0));
#413=DIRECTION('',(-0.984807753012208,0.173648177666931,0.0));
#414=DIRECTION('',(0.0,-6.12323399573677E-017,-1.0));
#415=DIRECTION('',(-0.984807753012208,0.173648177666931,-1.06328842478789E-017));
#416=DIRECTION('',(0.0,-6.12323399573677E-017,-1.0));
#417=DIRECTION('',(0.984807753012208,-0.173648177666931,0.0));
#418=CARTESIAN_POINT('',(0.0,0.0,0.0));
#419=DIRECTION('',(0.0,-6.12323399573677E-017,-1.0));
#420=DIRECTION('',(0.0,1.0,-6.12323399573677E-017));
#421=CARTESIAN_POINT('',(0.0,0.0,0.0005));
#422=DIRECTION('',(0.0,-6.12323399573677E-017,-1.0));
#423=DIRECTION('',(0.0,1.0,-6.12323399573677E-017));
#424=CARTESIAN_POINT('',(0.0,0.0,0.0012));
#425=DIRECTION('',(0.0,-6.12323399573677E-017,-1.0));
#426=DIRECTION('',(0.0,1.0,-6.12323399573677E-017));
#427=CARTESIAN_POINT('',(0.0,0.0,0.0));
#428=DIRECTION('',(0.0,-6.12323399573677E-017,-1.0));
#429=DIRECTION('',(0.0,1.0,-6.12323399573677E-017));
#430=DIRECTION('',(0.984807753012208,0.173648177666931,-2.0942693688385E-017));
#431=CARTESIAN_POINT('',(0.0,0.0,0.024));
#432=DIRECTION('',(0.0,-6.12323399573677E-017,-1.0));
#433=DIRECTION('',(0.0,1.0,-6.12323399573677E-017));
#434=DIRECTION('',(0.0,-6.12323399573677E-017,-1.0));
#435=CARTESIAN_POINT('',(0.0,0.0,0.024));
#436=DIRECTION('',(0.0,-6.12323399573677E-017,-1.0));
#437=DIRECTION('',(0.0,1.0,-6.12323399573677E-017));
#438=DIRECTION('',(-0.984807753012208,-0.173648177666931,1.06328842478789E-017));
#439=CARTESIAN_POINT('',(0.0,0.0,0.026));
#440=DIRECTION('',(0.0,-6.12323399573677E-017,-1.0));
#441=DIRECTION('',(0.0,1.0,-6.12323399573677E-017));
#442=DIRECTION('',(0.0,-6.12323399573677E-017,-1.0));
#443=CARTESIAN_POINT('',(0.0,0.0,0.026));
#444=DIRECTION('',(0.0,-6.12323399573677E-017,-1.0));
#445=DIRECTION('',(0.0,1.0,-6.12323399573677E-017));
#446=DIRECTION('',(-0.984807753012208,-0.173648177666931,2.0942693688385E-017));
#447=DIRECTION('',(0.0,-6.12323399573677E-017,-1.0));
ENDSEC;
END-ISO-10303-21;
