ISO-10303-21;
HEADER;
FILE_DESCRIPTION(('STEP AP203'),'1');
FILE_NAME('410-BM2435F35LMB.stp','2016-09-19T19:01:36',(' '),(' '),'Spatial InterOp 3D',' ',' ');
FILE_SCHEMA(('CONFIG_CONTROL_DESIGN'));
ENDSEC;
DATA;
#1=DESIGN_CONTEXT('',#51,'design');
#2=APPLICATION_PROTOCOL_DEFINITION('INTERNATIONAL STANDARD','config_control_design',1994,#51);
#3=PRODUCT_CATEGORY_RELATIONSHIP('NONE','NONE',#52,#53);
#4=DATE_AND_TIME(#54,#55);
#5=DATE_TIME_ROLE('creation_date');
#6=DATE_TIME_ROLE('classification_date');
#7=PERSON_AND_ORGANIZATION_ROLE('creator');
#8=PERSON_AND_ORGANIZATION_ROLE('design_supplier');
#9=PERSON_AND_ORGANIZATION_ROLE('classification_officer');
#10=PERSON_AND_ORGANIZATION_ROLE('design_owner');
#11=APPROVAL_PERSON_ORGANIZATION(#56,#57,#58);
#12=APPROVAL_DATE_TIME(#4,#57);
#13=CC_DESIGN_APPROVAL(#57,(#59,#60,#61));
#14=CC_DESIGN_DATE_AND_TIME_ASSIGNMENT(#4,#5,(#61));
#15=CC_DESIGN_DATE_AND_TIME_ASSIGNMENT(#4,#6,(#59));
#16=CC_DESIGN_PERSON_AND_ORGANIZATION_ASSIGNMENT(#56,#10,(#62));
#17=CC_DESIGN_PERSON_AND_ORGANIZATION_ASSIGNMENT(#56,#7,(#61));
#18=CC_DESIGN_PERSON_AND_ORGANIZATION_ASSIGNMENT(#56,#7,(#60));
#19=CC_DESIGN_PERSON_AND_ORGANIZATION_ASSIGNMENT(#56,#8,(#60));
#20=CC_DESIGN_SECURITY_CLASSIFICATION(#59,(#60));
#21=CC_DESIGN_PERSON_AND_ORGANIZATION_ASSIGNMENT(#56,#9,(#59));
#22=SHAPE_DEFINITION_REPRESENTATION(#63,#64);
#23=DESIGN_CONTEXT('',#65,'design');
#24=APPLICATION_PROTOCOL_DEFINITION('INTERNATIONAL STANDARD','config_control_design',1994,#65);
#25=PRODUCT_CATEGORY_RELATIONSHIP('NONE','NONE',#66,#67);
#26=DATE_AND_TIME(#68,#69);
#27=DATE_TIME_ROLE('creation_date');
#28=DATE_TIME_ROLE('classification_date');
#29=PERSON_AND_ORGANIZATION_ROLE('creator');
#30=PERSON_AND_ORGANIZATION_ROLE('design_supplier');
#31=PERSON_AND_ORGANIZATION_ROLE('classification_officer');
#32=PERSON_AND_ORGANIZATION_ROLE('design_owner');
#33=APPROVAL_PERSON_ORGANIZATION(#70,#71,#72);
#34=APPROVAL_DATE_TIME(#26,#71);
#35=CC_DESIGN_APPROVAL(#71,(#73,#74,#75));
#36=CC_DESIGN_DATE_AND_TIME_ASSIGNMENT(#26,#27,(#75));
#37=CC_DESIGN_DATE_AND_TIME_ASSIGNMENT(#26,#28,(#73));
#38=CC_DESIGN_PERSON_AND_ORGANIZATION_ASSIGNMENT(#70,#32,(#76));
#39=CC_DESIGN_PERSON_AND_ORGANIZATION_ASSIGNMENT(#70,#29,(#75));
#40=CC_DESIGN_PERSON_AND_ORGANIZATION_ASSIGNMENT(#70,#29,(#74));
#41=CC_DESIGN_PERSON_AND_ORGANIZATION_ASSIGNMENT(#70,#30,(#74));
#42=CC_DESIGN_SECURITY_CLASSIFICATION(#73,(#74));
#43=CC_DESIGN_PERSON_AND_ORGANIZATION_ASSIGNMENT(#70,#31,(#73));
#44=CONTEXT_DEPENDENT_SHAPE_REPRESENTATION(#77,#78);
#45=SHAPE_DEFINITION_REPRESENTATION(#79,#80);
#46=SHAPE_REPRESENTATION_RELATIONSHIP('NONE','NONE',#80,#81);
#47= (GEOMETRIC_REPRESENTATION_CONTEXT(3)GLOBAL_UNCERTAINTY_ASSIGNED_CONTEXT((#84))GLOBAL_UNIT_ASSIGNED_CONTEXT((#86,#87,#88))REPRESENTATION_CONTEXT('NONE','WORKSPACE'));
#51=APPLICATION_CONTEXT('CONFIGURATION CONTROLLED 3D DESIGNS OF MECHANICAL PARTS AND ASSEMBLIES');
#52=PRODUCT_CATEGORY('part','NONE');
#53=PRODUCT_RELATED_PRODUCT_CATEGORY('detail',' ',(#62));
#54=CALENDAR_DATE(2016,19,8);
#55=LOCAL_TIME(21,1,36.0,#90);
#56=PERSON_AND_ORGANIZATION(#91,#92);
#57=APPROVAL(#93,'SOLID MODEL');
#58=APPROVAL_ROLE('APPROVED');
#59=SECURITY_CLASSIFICATION('','',#94);
#60=PRODUCT_DEFINITION_FORMATION_WITH_SPECIFIED_SOURCE(' ','NONE',#62,.NOT_KNOWN.);
#61=PRODUCT_DEFINITION('NONE','NONE',#60,#1);
#62=PRODUCT('','','PART--DESC',(#95));
#63=PRODUCT_DEFINITION_SHAPE('NONE','NONE',#61);
#64=SHAPE_REPRESENTATION('',(#96,#97),#98);
#65=APPLICATION_CONTEXT('CONFIGURATION CONTROLLED 3D DESIGNS OF MECHANICAL PARTS AND ASSEMBLIES');
#66=PRODUCT_CATEGORY('part','NONE');
#67=PRODUCT_RELATED_PRODUCT_CATEGORY('detail',' ',(#76));
#68=CALENDAR_DATE(2016,19,8);
#69=LOCAL_TIME(21,1,36.0,#99);
#70=PERSON_AND_ORGANIZATION(#100,#101);
#71=APPROVAL(#102,'SOLID MODEL');
#72=APPROVAL_ROLE('APPROVED');
#73=SECURITY_CLASSIFICATION('','',#103);
#74=PRODUCT_DEFINITION_FORMATION_WITH_SPECIFIED_SOURCE(' ','NONE',#76,.NOT_KNOWN.);
#75=PRODUCT_DEFINITION('410-BM2435F35LMB','410-BM2435F35LMB',#74,#23);
#76=PRODUCT('410-BM2435F35LMB','410-BM2435F35LMB','PART-410-BM2435F35LMB-DESC',(#104));
#77=(REPRESENTATION_RELATIONSHIP('','',#80,#64)REPRESENTATION_RELATIONSHIP_WITH_TRANSFORMATION(#107)SHAPE_REPRESENTATION_RELATIONSHIP());
#78=PRODUCT_DEFINITION_SHAPE('NAUO-PROD-DEF','NAUO-PROD-DEF',#109);
#79=PRODUCT_DEFINITION_SHAPE('NONE','NONE',#75);
#80=SHAPE_REPRESENTATION('410-BM2435F35LMB',(#96),#98);
#81=ADVANCED_BREP_SHAPE_REPRESENTATION('',(#110),#47);
#84=UNCERTAINTY_MEASURE_WITH_UNIT(LENGTH_MEASURE(1.0E-006),#86,'','');
#86= (CONVERSION_BASED_UNIT('METRE',#113)LENGTH_UNIT()NAMED_UNIT(#116));
#87= (NAMED_UNIT(#118)PLANE_ANGLE_UNIT()SI_UNIT($,.RADIAN.));
#88= (NAMED_UNIT(#118)SOLID_ANGLE_UNIT()SI_UNIT($,.STERADIAN.));
#90=COORDINATED_UNIVERSAL_TIME_OFFSET(1,0,.AHEAD.);
#91=PERSON('','UNSPECIFIED',$,$,$,$);
#92=ORGANIZATION('UNSPECIFIED','UNSPECIFIED','UNSPECIFIED');
#93=APPROVAL_STATUS('approved');
#94=SECURITY_CLASSIFICATION_LEVEL('unclassified');
#95=MECHANICAL_CONTEXT('',#51,'mechanical');
#96=AXIS2_PLACEMENT_3D('',#124,#125,#126);
#97=AXIS2_PLACEMENT_3D('',#127,#128,#129);
#98= (GEOMETRIC_REPRESENTATION_CONTEXT(3)GLOBAL_UNCERTAINTY_ASSIGNED_CONTEXT((#132))GLOBAL_UNIT_ASSIGNED_CONTEXT((#134,#135,#136))REPRESENTATION_CONTEXT('NONE','WORKSPACE'));
#99=COORDINATED_UNIVERSAL_TIME_OFFSET(1,0,.AHEAD.);
#100=PERSON('','UNSPECIFIED',$,$,$,$);
#101=ORGANIZATION('UNSPECIFIED','UNSPECIFIED','UNSPECIFIED');
#102=APPROVAL_STATUS('approved');
#103=SECURITY_CLASSIFICATION_LEVEL('unclassified');
#104=MECHANICAL_CONTEXT('',#65,'mechanical');
#107=ITEM_DEFINED_TRANSFORMATION('','',#96,#97);
#109=NEXT_ASSEMBLY_USAGE_OCCURRENCE('410-BM2435F35LMB','410-BM2435F35LMB','410-BM2435F35LMB',#61,#75,$);
#110=MANIFOLD_SOLID_BREP('',#138);
#113=LENGTH_MEASURE_WITH_UNIT(LENGTH_MEASURE(1.0),#139);
#116=DIMENSIONAL_EXPONENTS(1.0,0.0,0.0,0.0,0.0,0.0,0.0);
#118=DIMENSIONAL_EXPONENTS(0.0,0.0,0.0,0.0,0.0,0.0,0.0);
#124=CARTESIAN_POINT('',(0.0,0.0,0.0));
#125=DIRECTION('',(0.0,0.0,1.0));
#126=DIRECTION('',(1.0,0.0,0.0));
#127=CARTESIAN_POINT('',(0.0,0.0,0.0));
#128=DIRECTION('',(0.0,0.0,1.0));
#129=DIRECTION('',(-1.0,-7.6571373978539E-016,0.0));
#132=UNCERTAINTY_MEASURE_WITH_UNIT(LENGTH_MEASURE(1.0E-006),#134,'','');
#134= (CONVERSION_BASED_UNIT('METRE',#142)LENGTH_UNIT()NAMED_UNIT(#145));
#135= (NAMED_UNIT(#147)PLANE_ANGLE_UNIT()SI_UNIT($,.RADIAN.));
#136= (NAMED_UNIT(#147)SOLID_ANGLE_UNIT()SI_UNIT($,.STERADIAN.));
#138=CLOSED_SHELL('',(#153,#154,#155,#156,#157,#158,#159,#160,#161,#162,#163,#164));
#139= (NAMED_UNIT(#116)LENGTH_UNIT()SI_UNIT($,.METRE.));
#142=LENGTH_MEASURE_WITH_UNIT(LENGTH_MEASURE(1.0),#166);
#145=DIMENSIONAL_EXPONENTS(1.0,0.0,0.0,0.0,0.0,0.0,0.0);
#147=DIMENSIONAL_EXPONENTS(0.0,0.0,0.0,0.0,0.0,0.0,0.0);
#153=ADVANCED_FACE('',(#167),#168,.F.);
#154=ADVANCED_FACE('',(#169),#170,.F.);
#155=ADVANCED_FACE('',(#171),#172,.T.);
#156=ADVANCED_FACE('',(#173),#174,.F.);
#157=ADVANCED_FACE('',(#175),#176,.T.);
#158=ADVANCED_FACE('',(#177),#178,.T.);
#159=ADVANCED_FACE('',(#179),#180,.T.);
#160=ADVANCED_FACE('',(#181),#182,.T.);
#161=ADVANCED_FACE('',(#183),#184,.F.);
#162=ADVANCED_FACE('',(#185),#186,.T.);
#163=ADVANCED_FACE('',(#187),#188,.T.);
#164=ADVANCED_FACE('',(#189),#190,.T.);
#166= (NAMED_UNIT(#145)LENGTH_UNIT()SI_UNIT($,.METRE.));
#167=FACE_OUTER_BOUND('',#192,.T.);
#168=PLANE('',#193);
#169=FACE_OUTER_BOUND('',#194,.T.);
#170=CONICAL_SURFACE('',#195,0.012,0.523598775598298);
#171=FACE_OUTER_BOUND('',#196,.T.);
#172=TOROIDAL_SURFACE('',#197,0.0145,0.0025);
#173=FACE_OUTER_BOUND('',#198,.T.);
#174=TOROIDAL_SURFACE('',#199,0.0145,0.001);
#175=FACE_OUTER_BOUND('',#200,.T.);
#176=PLANE('',#201);
#177=FACE_OUTER_BOUND('',#202,.T.);
#178=CYLINDRICAL_SURFACE('',#203,0.0175);
#179=FACE_OUTER_BOUND('',#204,.T.);
#180=PLANE('',#205);
#181=FACE_OUTER_BOUND('',#206,.T.);
#182=CYLINDRICAL_SURFACE('',#207,0.0135);
#183=FACE_OUTER_BOUND('',#208,.T.);
#184=CYLINDRICAL_SURFACE('',#209,0.012);
#185=FACE_OUTER_BOUND('',#210,.T.);
#186=PLANE('',#211);
#187=FACE_OUTER_BOUND('',#212,.T.);
#188=CONICAL_SURFACE('',#213,0.0132452208360137,0.349065850398866);
#189=FACE_OUTER_BOUND('',#214,.T.);
#190=PLANE('',#215);
#192=EDGE_LOOP('',(#216,#217,#218,#219,#220,#221,#222,#223,#224,#225));
#193=AXIS2_PLACEMENT_3D('',#226,#227,#228);
#194=EDGE_LOOP('',(#229,#230,#231,#232));
#195=AXIS2_PLACEMENT_3D('',#233,#234,#235);
#196=EDGE_LOOP('',(#236,#237,#238,#239));
#197=AXIS2_PLACEMENT_3D('',#240,#241,#242);
#198=EDGE_LOOP('',(#243,#244,#245,#246));
#199=AXIS2_PLACEMENT_3D('',#247,#248,#249);
#200=EDGE_LOOP('',(#250,#251,#252,#253));
#201=AXIS2_PLACEMENT_3D('',#254,#255,#256);
#202=EDGE_LOOP('',(#257,#258,#259,#260));
#203=AXIS2_PLACEMENT_3D('',#261,#262,#263);
#204=EDGE_LOOP('',(#264,#265,#266,#267));
#205=AXIS2_PLACEMENT_3D('',#268,#269,#270);
#206=EDGE_LOOP('',(#271,#272,#273,#274));
#207=AXIS2_PLACEMENT_3D('',#275,#276,#277);
#208=EDGE_LOOP('',(#278,#279,#280,#281));
#209=AXIS2_PLACEMENT_3D('',#282,#283,#284);
#210=EDGE_LOOP('',(#285,#286,#287,#288));
#211=AXIS2_PLACEMENT_3D('',#289,#290,#291);
#212=EDGE_LOOP('',(#292,#293,#294,#295));
#213=AXIS2_PLACEMENT_3D('',#296,#297,#298);
#214=EDGE_LOOP('',(#299,#300,#301,#302,#303,#304,#305,#306,#307,#308));
#215=AXIS2_PLACEMENT_3D('',#309,#310,#311);
#216=ORIENTED_EDGE('',*,*,#312,.T.);
#217=ORIENTED_EDGE('',*,*,#313,.F.);
#218=ORIENTED_EDGE('',*,*,#314,.T.);
#219=ORIENTED_EDGE('',*,*,#315,.T.);
#220=ORIENTED_EDGE('',*,*,#316,.T.);
#221=ORIENTED_EDGE('',*,*,#317,.T.);
#222=ORIENTED_EDGE('',*,*,#318,.T.);
#223=ORIENTED_EDGE('',*,*,#319,.F.);
#224=ORIENTED_EDGE('',*,*,#320,.T.);
#225=ORIENTED_EDGE('',*,*,#321,.T.);
#226=CARTESIAN_POINT('',(0.000290441443183666,0.00188838412504393,-5.38992003813743E-019));
#227=DIRECTION('',(-0.173648177666931,-0.984807753012208,4.95635278850516E-017));
#228=DIRECTION('',(-8.6066162959833E-018,-4.88105465278356E-017,-1.0));
#229=ORIENTED_EDGE('',*,*,#322,.T.);
#230=ORIENTED_EDGE('',*,*,#323,.T.);
#231=ORIENTED_EDGE('',*,*,#324,.F.);
#232=ORIENTED_EDGE('',*,*,#320,.F.);
#233=CARTESIAN_POINT('',(0.0,0.0,0.0005));
#234=DIRECTION('',(0.0,-6.12323399573677E-017,-1.0));
#235=DIRECTION('',(0.0,1.0,-6.12323399573677E-017));
#236=ORIENTED_EDGE('',*,*,#325,.T.);
#237=ORIENTED_EDGE('',*,*,#326,.T.);
#238=ORIENTED_EDGE('',*,*,#327,.F.);
#239=ORIENTED_EDGE('',*,*,#312,.F.);
#240=CARTESIAN_POINT('',(0.0,3.46944695195362E-018,0.0325));
#241=DIRECTION('',(0.0,-6.12323399573677E-017,-1.0));
#242=DIRECTION('',(0.0,1.0,-6.12323399573677E-017));
#243=ORIENTED_EDGE('',*,*,#328,.T.);
#244=ORIENTED_EDGE('',*,*,#329,.T.);
#245=ORIENTED_EDGE('',*,*,#330,.F.);
#246=ORIENTED_EDGE('',*,*,#316,.F.);
#247=CARTESIAN_POINT('',(0.0,3.46944695195362E-018,0.0325));
#248=DIRECTION('',(0.0,-6.12323399573677E-017,-1.0));
#249=DIRECTION('',(0.0,1.0,-6.12323399573677E-017));
#250=ORIENTED_EDGE('',*,*,#331,.T.);
#251=ORIENTED_EDGE('',*,*,#332,.T.);
#252=ORIENTED_EDGE('',*,*,#328,.F.);
#253=ORIENTED_EDGE('',*,*,#315,.F.);
#254=CARTESIAN_POINT('',(0.0145,3.46944695195362E-018,0.0335));
#255=DIRECTION('',(0.0,-6.12323399573677E-017,-1.0));
#256=DIRECTION('',(0.0,1.0,-6.12323399573677E-017));
#257=ORIENTED_EDGE('',*,*,#333,.T.);
#258=ORIENTED_EDGE('',*,*,#334,.T.);
#259=ORIENTED_EDGE('',*,*,#331,.F.);
#260=ORIENTED_EDGE('',*,*,#314,.F.);
#261=CARTESIAN_POINT('',(0.0,0.0,0.0));
#262=DIRECTION('',(0.0,-6.12323399573677E-017,-1.0));
#263=DIRECTION('',(0.0,1.0,-6.12323399573677E-017));
#264=ORIENTED_EDGE('',*,*,#327,.T.);
#265=ORIENTED_EDGE('',*,*,#335,.F.);
#266=ORIENTED_EDGE('',*,*,#333,.F.);
#267=ORIENTED_EDGE('',*,*,#313,.T.);
#268=CARTESIAN_POINT('',(0.0175,3.46944695195362E-018,0.035));
#269=DIRECTION('',(0.0,6.12323399573677E-017,1.0));
#270=DIRECTION('',(0.0,-1.0,6.12323399573677E-017));
#271=ORIENTED_EDGE('',*,*,#330,.T.);
#272=ORIENTED_EDGE('',*,*,#336,.T.);
#273=ORIENTED_EDGE('',*,*,#337,.F.);
#274=ORIENTED_EDGE('',*,*,#317,.F.);
#275=CARTESIAN_POINT('',(0.0,0.0,0.0));
#276=DIRECTION('',(0.0,-6.12323399573677E-017,-1.0));
#277=DIRECTION('',(0.0,1.0,-6.12323399573677E-017));
#278=ORIENTED_EDGE('',*,*,#324,.T.);
#279=ORIENTED_EDGE('',*,*,#338,.T.);
#280=ORIENTED_EDGE('',*,*,#325,.F.);
#281=ORIENTED_EDGE('',*,*,#321,.F.);
#282=CARTESIAN_POINT('',(0.0,0.0,0.0));
#283=DIRECTION('',(0.0,-6.12323399573677E-017,-1.0));
#284=DIRECTION('',(0.0,1.0,-6.12323399573677E-017));
#285=ORIENTED_EDGE('',*,*,#339,.T.);
#286=ORIENTED_EDGE('',*,*,#340,.F.);
#287=ORIENTED_EDGE('',*,*,#322,.F.);
#288=ORIENTED_EDGE('',*,*,#319,.T.);
#289=CARTESIAN_POINT('',(0.0122886751345948,0.0,-1.65858387043266E-020));
#290=DIRECTION('',(0.0,-6.12323399573677E-017,-1.0));
#291=DIRECTION('',(0.0,1.0,-6.12323399573677E-017));
#292=ORIENTED_EDGE('',*,*,#337,.T.);
#293=ORIENTED_EDGE('',*,*,#341,.T.);
#294=ORIENTED_EDGE('',*,*,#339,.F.);
#295=ORIENTED_EDGE('',*,*,#318,.F.);
#296=CARTESIAN_POINT('',(0.0,0.0,-3.31716774086531E-020));
#297=DIRECTION('',(-0.0,6.12323399573677E-017,1.0));
#298=DIRECTION('',(0.0,-1.0,6.12323399573677E-017));
#299=ORIENTED_EDGE('',*,*,#338,.F.);
#300=ORIENTED_EDGE('',*,*,#323,.F.);
#301=ORIENTED_EDGE('',*,*,#340,.T.);
#302=ORIENTED_EDGE('',*,*,#341,.F.);
#303=ORIENTED_EDGE('',*,*,#336,.F.);
#304=ORIENTED_EDGE('',*,*,#329,.F.);
#305=ORIENTED_EDGE('',*,*,#332,.F.);
#306=ORIENTED_EDGE('',*,*,#334,.F.);
#307=ORIENTED_EDGE('',*,*,#335,.T.);
#308=ORIENTED_EDGE('',*,*,#326,.F.);
#309=CARTESIAN_POINT('',(0.000290441443183666,-0.00188838412504393,-3.11245010852726E-019));
#310=DIRECTION('',(0.173648177666931,-0.984807753012208,4.58707659390765E-017));
#311=DIRECTION('',(-1.26591521997744E-017,-4.88105465278356E-017,-1.0));
#312=EDGE_CURVE('',#342,#343,#344,.T.);
#313=EDGE_CURVE('',#345,#343,#346,.T.);
#314=EDGE_CURVE('',#345,#347,#348,.T.);
#315=EDGE_CURVE('',#347,#349,#350,.T.);
#316=EDGE_CURVE('',#349,#351,#352,.T.);
#317=EDGE_CURVE('',#351,#353,#354,.T.);
#318=EDGE_CURVE('',#353,#355,#356,.T.);
#319=EDGE_CURVE('',#357,#355,#358,.T.);
#320=EDGE_CURVE('',#357,#359,#360,.T.);
#321=EDGE_CURVE('',#359,#342,#361,.F.);
#322=EDGE_CURVE('',#357,#362,#363,.T.);
#323=EDGE_CURVE('',#362,#364,#365,.T.);
#324=EDGE_CURVE('',#359,#364,#366,.T.);
#325=EDGE_CURVE('',#342,#367,#368,.T.);
#326=EDGE_CURVE('',#367,#369,#370,.T.);
#327=EDGE_CURVE('',#343,#369,#371,.T.);
#328=EDGE_CURVE('',#349,#372,#373,.T.);
#329=EDGE_CURVE('',#372,#374,#375,.T.);
#330=EDGE_CURVE('',#351,#374,#376,.T.);
#331=EDGE_CURVE('',#347,#377,#378,.T.);
#332=EDGE_CURVE('',#377,#372,#379,.T.);
#333=EDGE_CURVE('',#345,#380,#381,.T.);
#334=EDGE_CURVE('',#380,#377,#382,.T.);
#335=EDGE_CURVE('',#380,#369,#383,.T.);
#336=EDGE_CURVE('',#374,#384,#385,.T.);
#337=EDGE_CURVE('',#353,#384,#386,.T.);
#338=EDGE_CURVE('',#364,#367,#387,.F.);
#339=EDGE_CURVE('',#355,#388,#389,.T.);
#340=EDGE_CURVE('',#362,#388,#390,.T.);
#341=EDGE_CURVE('',#384,#388,#391,.T.);
#342=VERTEX_POINT('',#392);
#343=VERTEX_POINT('',#393);
#344=B_SPLINE_CURVE_WITH_KNOTS('',3,(#394,#395,#396,#397,#398,#399,#400,#401,#402,#403,#404,#405,#406,#407),.UNSPECIFIED.,.F.,.F.,(4,2,2,2,2,2,4),(1.9714553747532E-007,0.000490917964346007,0.000981638783154539,0.00147235960196307,0.0019630804207716,0.00294452205838867,0.00392596369600573),.UNSPECIFIED.);
#345=VERTEX_POINT('',#408);
#346=LINE('',#409,#410);
#347=VERTEX_POINT('',#411);
#348=LINE('',#412,#413);
#349=VERTEX_POINT('',#414);
#350=LINE('',#415,#416);
#351=VERTEX_POINT('',#417);
#352=B_SPLINE_CURVE_WITH_KNOTS('',3,(#418,#419,#420,#421,#422,#423,#424,#425),.UNSPECIFIED.,.F.,.F.,(4,2,2,4),(1.32703068822965E-005,0.000405674964549431,0.000798079622216565,0.00158288893755082),.UNSPECIFIED.);
#353=VERTEX_POINT('',#426);
#354=LINE('',#427,#428);
#355=VERTEX_POINT('',#429);
#356=B_SPLINE_CURVE_WITH_KNOTS('',3,(#430,#431,#432,#433),.UNSPECIFIED.,.F.,.F.,(4,4),(2.13089708033495E-007,0.000746044532646428),.UNSPECIFIED.);
#357=VERTEX_POINT('',#434);
#358=LINE('',#435,#436);
#359=VERTEX_POINT('',#437);
#360=B_SPLINE_CURVE_WITH_KNOTS('',3,(#438,#439,#440,#441),.UNSPECIFIED.,.F.,.F.,(4,4),(2.31653734337905E-007,0.000579409956224791),.UNSPECIFIED.);
#361=LINE('',#442,#443);
#362=VERTEX_POINT('',#444);
#363=CIRCLE('',#445,0.0122886751345948);
#364=VERTEX_POINT('',#446);
#365=B_SPLINE_CURVE_WITH_KNOTS('',3,(#447,#448,#449,#450),.UNSPECIFIED.,.F.,.F.,(4,4),(2.31653734337986E-007,0.000579409956224791),.UNSPECIFIED.);
#366=CIRCLE('',#451,0.012);
#367=VERTEX_POINT('',#452);
#368=CIRCLE('',#453,0.012);
#369=VERTEX_POINT('',#454);
#370=B_SPLINE_CURVE_WITH_KNOTS('',3,(#455,#456,#457,#458,#459,#460,#461,#462,#463,#464,#465,#466,#467,#468),.UNSPECIFIED.,.F.,.F.,(4,2,2,2,2,2,4),(1.9714553747532E-007,0.000490917964346007,0.000981638783154539,0.00147235960196307,0.0019630804207716,0.00294452205838867,0.00392596369600573),.UNSPECIFIED.);
#371=CIRCLE('',#469,0.0145);
#372=VERTEX_POINT('',#470);
#373=CIRCLE('',#471,0.0145);
#374=VERTEX_POINT('',#472);
#375=B_SPLINE_CURVE_WITH_KNOTS('',3,(#473,#474,#475,#476,#477,#478,#479,#480),.UNSPECIFIED.,.F.,.F.,(4,2,2,4),(1.32703068822965E-005,0.000405674964549431,0.000798079622216565,0.00158288893755082),.UNSPECIFIED.);
#376=CIRCLE('',#481,0.0135);
#377=VERTEX_POINT('',#482);
#378=CIRCLE('',#483,0.0175);
#379=LINE('',#484,#485);
#380=VERTEX_POINT('',#486);
#381=CIRCLE('',#487,0.0175);
#382=LINE('',#488,#489);
#383=LINE('',#490,#491);
#384=VERTEX_POINT('',#492);
#385=LINE('',#493,#494);
#386=CIRCLE('',#495,0.0135);
#387=LINE('',#496,#497);
#388=VERTEX_POINT('',#498);
#389=CIRCLE('',#499,0.0132452208360137);
#390=LINE('',#500,#501);
#391=B_SPLINE_CURVE_WITH_KNOTS('',3,(#502,#503,#504,#505),.UNSPECIFIED.,.F.,.F.,(4,4),(2.13089708033495E-007,0.000746044532646428),.UNSPECIFIED.);
#392=CARTESIAN_POINT('',(0.0119987078094052,-0.000176099132642391,0.0325));
#393=CARTESIAN_POINT('',(0.0144869584730152,-0.000614844859402564,0.035));
#394=CARTESIAN_POINT('',(0.0119987078094053,-0.000176099132642394,0.0325));
#395=CARTESIAN_POINT('',(0.0119987078094053,-0.000176099132642394,0.0326659408341365));
#396=CARTESIAN_POINT('',(0.0120150258503608,-0.000178976443535167,0.0328290524882073));
#397=CARTESIAN_POINT('',(0.0120789083171881,-0.000190240646031028,0.0331498583783167));
#398=CARTESIAN_POINT('',(0.0121272816778949,-0.000198770174671174,0.0333092522529094));
#399=CARTESIAN_POINT('',(0.0122531679440327,-0.000220967319891913,0.0336124971763456));
#400=CARTESIAN_POINT('',(0.0123301361672749,-0.000234538894306708,0.0337562301185229));
#401=CARTESIAN_POINT('',(0.0125117982162809,-0.00026657081491726,0.0340280995482257));
#402=CARTESIAN_POINT('',(0.0126172099828789,-0.000285157753452622,0.0341564115490086));
#403=CARTESIAN_POINT('',(0.0129620099977664,-0.000345955299025967,0.0345011753106141));
#404=CARTESIAN_POINT('',(0.0132392114109518,-0.000394833387261077,0.0346863818536905));
#405=CARTESIAN_POINT('',(0.0138355886459992,-0.000499990784480239,0.0349342573854599));
#406=CARTESIAN_POINT('',(0.0141604091298398,-0.000557265399668115,0.035));
#407=CARTESIAN_POINT('',(0.0144869584730152,-0.000614844859402566,0.035));
#408=CARTESIAN_POINT('',(0.0174628567678152,-0.00113957602062011,0.035));
#409=CARTESIAN_POINT('',(0.0218328852831343,-0.00191012995433623,0.035));
#410=VECTOR('',#506,1.0);
#411=CARTESIAN_POINT('',(0.0174628567678152,-0.00113957602062011,0.0335));
#412=CARTESIAN_POINT('',(0.0174628567678152,-0.00113957602062011,9.02909423321761E-020));
#413=VECTOR('',#507,1.0);
#414=CARTESIAN_POINT('',(0.0144869584730152,-0.000614844859402564,0.0335));
#415=CARTESIAN_POINT('',(0.0143944620863753,-0.000598535250819918,0.0335));
#416=VECTOR('',#508,1.0);
#417=CARTESIAN_POINT('',(0.0134928422173278,-0.000439555341563998,0.0325));
#418=CARTESIAN_POINT('',(0.0144869584730152,-0.000614844859402567,0.0335));
#419=CARTESIAN_POINT('',(0.0143565755683563,-0.000591854835488058,0.0335));
#420=CARTESIAN_POINT('',(0.0142280434965174,-0.000569191163336504,0.033474227996524));
#421=CARTESIAN_POINT('',(0.0139882505076367,-0.000526909189612116,0.0333747471893703));
#422=CARTESIAN_POINT('',(0.0138779319236236,-0.000507457046777048,0.0333009146442654));
#423=CARTESIAN_POINT('',(0.0136022637379569,-0.000458849307921062,0.0330251735733565));
#424=CARTESIAN_POINT('',(0.0134928422173246,-0.000439555341563437,0.0327654238183619));
#425=CARTESIAN_POINT('',(0.0134928422173245,-0.00043955534156342,0.0325000000000004));
#426=CARTESIAN_POINT('',(0.0134928422173278,-0.000439555341564,0.0007));
#427=CARTESIAN_POINT('',(0.0134928422173278,-0.000439555341564,4.74270381350247E-020));
#428=VECTOR('',#509,1.0);
#429=CARTESIAN_POINT('',(0.0132393339909011,-0.000394855001413427,6.43083039248804E-019));
#430=CARTESIAN_POINT('',(0.0134928422173278,-0.000439555341564003,0.000699999999999997));
#431=CARTESIAN_POINT('',(0.0134083541037801,-0.000424657807596384,0.000466661204675094));
#432=CARTESIAN_POINT('',(0.013323851647888,-0.000409757744686492,0.000233327763357074));
#433=CARTESIAN_POINT('',(0.0132393339909011,-0.00039485500141343,7.00268909520635E-019));
#434=CARTESIAN_POINT('',(0.012286580955947,-0.000226858935399138,6.43083039248804E-019));
#435=CARTESIAN_POINT('',(0.011,0.0,6.43083039248804E-019));
#436=VECTOR('',#510,1.0);
#437=CARTESIAN_POINT('',(0.0119987078094053,-0.000176099132642394,0.0005));
#438=CARTESIAN_POINT('',(0.012286580955947,-0.000226858935399139,-1.83346977869734E-018));
#439=CARTESIAN_POINT('',(0.0121906445468986,-0.000209942758051627,0.000166679313300646));
#440=CARTESIAN_POINT('',(0.0120946873520718,-0.00019302291561056,0.000333346292933219));
#441=CARTESIAN_POINT('',(0.0119987078094053,-0.000176099132642396,0.000499999999999998));
#442=CARTESIAN_POINT('',(0.0119987078094052,-0.000176099132642394,3.12949979864576E-020));
#443=VECTOR('',#511,1.0);
#444=CARTESIAN_POINT('',(0.012286580955947,0.000226858935399138,6.15722906488585E-019));
#445=AXIS2_PLACEMENT_3D('',#512,#513,#514);
#446=CARTESIAN_POINT('',(0.0119987078094053,0.000176099132642395,0.0005));
#447=CARTESIAN_POINT('',(0.012286580955947,0.000226858935399139,-1.82461368318649E-018));
#448=CARTESIAN_POINT('',(0.0121906445468986,0.000209942758051627,0.000166679313300646));
#449=CARTESIAN_POINT('',(0.0120946873520718,0.00019302291561056,0.000333346292933219));
#450=CARTESIAN_POINT('',(0.0119987078094053,0.000176099132642396,0.000499999999999998));
#451=AXIS2_PLACEMENT_3D('',#515,#516,#517);
#452=CARTESIAN_POINT('',(0.0119987078094052,0.000176099132642397,0.0325));
#453=AXIS2_PLACEMENT_3D('',#518,#519,#520);
#454=CARTESIAN_POINT('',(0.0144869584730152,0.000614844859402567,0.035));
#455=CARTESIAN_POINT('',(0.0119987078094053,0.000176099132642397,0.0325));
#456=CARTESIAN_POINT('',(0.0119987078094053,0.000176099132642397,0.0326659408341365));
#457=CARTESIAN_POINT('',(0.0120150258503608,0.00017897644353517,0.0328290524882073));
#458=CARTESIAN_POINT('',(0.0120789083171881,0.000190240646031031,0.0331498583783167));
#459=CARTESIAN_POINT('',(0.0121272816778949,0.000198770174671177,0.0333092522529094));
#460=CARTESIAN_POINT('',(0.0122531679440327,0.000220967319891916,0.0336124971763456));
#461=CARTESIAN_POINT('',(0.0123301361672749,0.000234538894306712,0.0337562301185229));
#462=CARTESIAN_POINT('',(0.0125117982162809,0.000266570814917264,0.0340280995482257));
#463=CARTESIAN_POINT('',(0.0126172099828789,0.000285157753452625,0.0341564115490086));
#464=CARTESIAN_POINT('',(0.0129620099977664,0.00034595529902597,0.0345011753106141));
#465=CARTESIAN_POINT('',(0.0132392114109518,0.00039483338726108,0.0346863818536905));
#466=CARTESIAN_POINT('',(0.0138355886459992,0.000499990784480242,0.0349342573854599));
#467=CARTESIAN_POINT('',(0.0141604091298398,0.000557265399668119,0.035));
#468=CARTESIAN_POINT('',(0.0144869584730152,0.00061484485940257,0.035));
#469=AXIS2_PLACEMENT_3D('',#521,#522,#523);
#470=CARTESIAN_POINT('',(0.0144869584730152,0.000614844859402568,0.0335));
#471=AXIS2_PLACEMENT_3D('',#524,#525,#526);
#472=CARTESIAN_POINT('',(0.0134928422173278,0.000439555341564003,0.0325));
#473=CARTESIAN_POINT('',(0.0144869584730152,0.00061484485940257,0.0335));
#474=CARTESIAN_POINT('',(0.0143565755683563,0.000591854835488061,0.0335));
#475=CARTESIAN_POINT('',(0.0142280434965174,0.000569191163336508,0.033474227996524));
#476=CARTESIAN_POINT('',(0.0139882505076367,0.000526909189612119,0.0333747471893703));
#477=CARTESIAN_POINT('',(0.0138779319236236,0.000507457046777051,0.0333009146442654));
#478=CARTESIAN_POINT('',(0.0136022637379569,0.000458849307921065,0.0330251735733565));
#479=CARTESIAN_POINT('',(0.0134928422173246,0.000439555341563441,0.0327654238183619));
#480=CARTESIAN_POINT('',(0.0134928422173245,0.000439555341563423,0.0325000000000004));
#481=AXIS2_PLACEMENT_3D('',#527,#528,#529);
#482=CARTESIAN_POINT('',(0.0174628567678152,0.00113957602062012,0.0335));
#483=AXIS2_PLACEMENT_3D('',#530,#531,#532);
#484=CARTESIAN_POINT('',(0.0143944620863753,0.000598535250819922,0.0335));
#485=VECTOR('',#533,1.0);
#486=CARTESIAN_POINT('',(0.0174628567678152,0.00113957602062012,0.035));
#487=AXIS2_PLACEMENT_3D('',#534,#535,#536);
#488=CARTESIAN_POINT('',(0.0174628567678152,0.00113957602062012,-9.73445975394162E-020));
#489=VECTOR('',#537,1.0);
#490=CARTESIAN_POINT('',(0.0218328852831343,0.00191012995433624,0.035));
#491=VECTOR('',#538,1.0);
#492=CARTESIAN_POINT('',(0.0134928422173278,0.000439555341564001,0.0007));
#493=CARTESIAN_POINT('',(0.0134928422173278,0.000439555341564001,-5.44806933422648E-020));
#494=VECTOR('',#539,1.0);
#495=AXIS2_PLACEMENT_3D('',#540,#541,#542);
#496=CARTESIAN_POINT('',(0.0119987078094052,0.000176099132642395,-3.83486531936977E-020));
#497=VECTOR('',#543,1.0);
#498=CARTESIAN_POINT('',(0.0132393339909011,0.000394855001413428,-5.7349573089067E-020));
#499=AXIS2_PLACEMENT_3D('',#544,#545,#546);
#500=CARTESIAN_POINT('',(0.011,0.0,6.43083039248804E-019));
#501=VECTOR('',#547,1.0);
#502=CARTESIAN_POINT('',(0.0134928422173278,0.000439555341564003,0.000699999999999997));
#503=CARTESIAN_POINT('',(0.0134083541037801,0.000424657807596384,0.000466661204675094));
#504=CARTESIAN_POINT('',(0.013323851647888,0.000409757744686492,0.000233327763357074));
#505=CARTESIAN_POINT('',(0.0132393339909011,0.00039485500141343,1.41965866902599E-019));
#506=DIRECTION('',(-0.984807753012208,0.173648177666931,0.0));
#507=DIRECTION('',(0.0,-6.12323399573677E-017,-1.0));
#508=DIRECTION('',(-0.984807753012208,0.173648177666931,-1.06328842478789E-017));
#509=DIRECTION('',(0.0,-6.12323399573677E-017,-1.0));
#510=DIRECTION('',(0.984807753012208,-0.173648177666931,0.0));
#511=DIRECTION('',(0.0,-6.12323399573677E-017,-1.0));
#512=CARTESIAN_POINT('',(0.0,0.0,0.0));
#513=DIRECTION('',(0.0,-6.12323399573677E-017,-1.0));
#514=DIRECTION('',(0.0,1.0,-6.12323399573677E-017));
#515=CARTESIAN_POINT('',(0.0,0.0,0.0005));
#516=DIRECTION('',(0.0,-6.12323399573677E-017,-1.0));
#517=DIRECTION('',(0.0,1.0,-6.12323399573677E-017));
#518=CARTESIAN_POINT('',(0.0,3.46944695195362E-018,0.0325));
#519=DIRECTION('',(0.0,-6.12323399573677E-017,-1.0));
#520=DIRECTION('',(0.0,1.0,-6.12323399573677E-017));
#521=CARTESIAN_POINT('',(0.0,3.46944695195362E-018,0.035));
#522=DIRECTION('',(0.0,-6.12323399573677E-017,-1.0));
#523=DIRECTION('',(0.0,1.0,-6.12323399573677E-017));
#524=CARTESIAN_POINT('',(0.0,3.46944695195362E-018,0.0335));
#525=DIRECTION('',(0.0,-6.12323399573677E-017,-1.0));
#526=DIRECTION('',(0.0,1.0,-6.12323399573677E-017));
#527=CARTESIAN_POINT('',(0.0,3.46944695195362E-018,0.0325));
#528=DIRECTION('',(0.0,-6.12323399573677E-017,-1.0));
#529=DIRECTION('',(0.0,1.0,-6.12323399573677E-017));
#530=CARTESIAN_POINT('',(0.0,3.46944695195362E-018,0.0335));
#531=DIRECTION('',(0.0,-6.12323399573677E-017,-1.0));
#532=DIRECTION('',(0.0,1.0,-6.12323399573677E-017));
#533=DIRECTION('',(-0.984807753012208,-0.173648177666931,1.06328842478789E-017));
#534=CARTESIAN_POINT('',(0.0,3.46944695195362E-018,0.035));
#535=DIRECTION('',(0.0,-6.12323399573677E-017,-1.0));
#536=DIRECTION('',(0.0,1.0,-6.12323399573677E-017));
#537=DIRECTION('',(0.0,-6.12323399573677E-017,-1.0));
#538=DIRECTION('',(-0.984807753012208,-0.173648177666931,2.0942693688385E-017));
#539=DIRECTION('',(0.0,-6.12323399573677E-017,-1.0));
#540=CARTESIAN_POINT('',(0.0,0.0,0.0007));
#541=DIRECTION('',(0.0,-6.12323399573677E-017,-1.0));
#542=DIRECTION('',(0.0,1.0,-6.12323399573677E-017));
#543=DIRECTION('',(0.0,-6.12323399573677E-017,-1.0));
#544=CARTESIAN_POINT('',(0.0,0.0,-3.31716774086531E-020));
#545=DIRECTION('',(0.0,-6.12323399573677E-017,-1.0));
#546=DIRECTION('',(0.0,1.0,-6.12323399573677E-017));
#547=DIRECTION('',(0.984807753012208,0.173648177666931,-2.0942693688385E-017));
ENDSEC;
END-ISO-10303-21;
